Song name
# A B C D E F G H I J K L M N O P Q R S T U V W X Y Z

Misc Computer Games - Legend Of Zelda - Ocarina Of Time - Opening Theme tab

This is the song that plays when it says "Press Start"
It's from the Legend of Zelda: Ocarina of Time.

Tuning: CADF#BE

Gtr I (piano/strings)
Gtr II (ocarina)

If you're having trouble playing the chords this could help:

E--0--         E--0--|
B--3-- middle  B--3--| ring
F#-3-- index   F#-5--| pinky
D--3-- index   D--2--| index
A--3-- index   A--3--| middle
C--5-- pinky   C--0--|

Gtr I + II
E|---------0----------0--|
B|--------3----------3---|
F#-------3----------5----|
D|------3----------2-----|
A|-----3---------(3)-----|
C|--5-----------0--------|
 |
E|-----------------------|
B|-----------------------|
F#-----------------------|
D|---------rest----------|
A|-----------------------|
C|-----------------------|

E|-------------0------------0--|
B|-----------3------------3----|
F#---------3------------5------|
D|-------3------------2--------|
A|-----3------------3----------|
C|--5-------------0------------|
 |
E|--------------------|-----0--|
B|--------------------|--3-----|
F#--------------------|--------|
D|-------rest---------|--------|
A|--------------------|--------|
C|--------------------|--------|

E|-------------0------------0--|
B|-----------3------------3----|
F#---------3------------5------|
D|-------3------------2--------|
A|-----3------------3----------|
C|--5-------------0------------|
 |
E|--10---p9p8p7~--5--3------0--|
B|-----------------------3-----|
F#-----------------------------|
D|-----------------------------|
A|-----------------------------|
C|-----------------------------|

E|-------------0------------0--|
B|-----------3------------3----|
F#---------3------------5------|
D|-------3------------2--------|
A|-----3------------3----------|
C|--5-------------0------------|
 |
E|--10---p9p8p7-8-7~--------0--|
B|-----------------------3-----|
F#-----------------------------|
D|-----------------------------|
A|-----------------------------|
C|-----------------------------|

E|-------------0------------0--|
B|-----------3------------3----|
F#---------3------------5------|
D|-------3------------2--------|
A|-----3------------3----------|
C|--5-------------0------------|
 |
E|--10---p9p8p7~--5--3------0--|
B|-----------------------3-----|
F#-----------------------------|
D|-----------------------------|
A|-----------------------------|
C|-----------------------------|

E|-------------0------------0--|
B|-----------3------------3----|
F#---------3------------5------|
D|-------3------------2--------|
A|-----3------------3----------|
C|--5-------------0------------|
 |
E|--10---p9p8p7~-12-7~---------|
B|-----------------------------|
F#-----------------------------|
D|-----------------------------|
A|-----------------------------|
C|-----------------------------|

E|--5-----------5-----7-----|
B|-----5-----8-----5-----8--|
F#--3-----8-----3-----5-----|
D|--3-----5-----3-----5-----|
A|--3-----5-----3-----5-----|
C|--5-----7-----5-----7-----|
 |
E|--5--------3--5-----7-----|
B|-----5--3--------5-----8--|
F#--------------------------|
D|--------------------------|
A|--------------------------|
C|--------------------------|

E|--5-----------5-----7-----|
B|-----5-----8-----5-----8--|
F#--3-----8-----3-----5-----|
D|--3-----5-----3-----5-----|
A|--3-----5-----3-----5-----|
C|--5-----7-----5-----7-----|
 |
E|--5--------3--5-----7-----|
B|-----5--3--------5-----8--|
F#--------------------------|
D|--------------------------|
A|--------------------------|
C|--------------------------|

E|--5-----------8-----------|
B|-----5-----8-----8-----8--|
F#--3-----8-----6-----11----|
D|--3-----5-----6-----8-----|
A|--3-----5-----6-----8-----|
C|--5-----7-----8-----10----|
 |
E|--5--------3--8--------3--|
B|-----5--3--------8--6-----|
F#--------------------------|
D|--------------------------|
A|--------------------------|
C|--------------------------|

E|-------------0------------0--|
B|-----------3------------3----|
F#---------3------------5------|
D|-------3------------2--------|
A|-----3------------3----------|
C|--5-------------0------------|
 |
E|-----------------------------|
B|-----------------------------|
F#-----------------------------|
D|------------rest-------------|
A|-----------------------------|
C|-----------------------------|

Fade out.

Brings back memories.
Tap to rate this tab
# A B C D E F G H I J K L M N O P Q R S T U V W X Y Z