Song name
# A B C D E F G H I J K L M N O P Q R S T U V W X Y Z

Misc Computer Games - Super Mario Then tab

I can't take full (or really much more than partial) credit for this tab.  This is a
fingerstyle version of the Super Mario Bros. Overworld theme, and its parts.

This is based on the Thierry Gomez version of the song, except this is the Overworld
theme only, and is written to match the original midi.  Thierry played all the basic parts,
and also delved into the underwater theme and the level 1-2 theme, but did not play the 
parts to match the original theme exactly.  He played/transcribed in a "jumping around"
fashion.  This is a more accurate representation.  I have modified the flag portion of 
the theme to be more accurate (in my opinion), so I take credit for that portion of the tab.

Overworld Theme

|-12-12--12-----12-|--15--------|---8--------5-|--5--7--6-5--|---0--3-5--1-3--|
|------------13----|------------|------8--5----|-------------|----------------|
|-11-11--11--11-11-|--12----12--|-o------------|-------------|-0-0--4-5--2-1--|
|------------------|------------|-o-5--------3-|--3--5--4-3--|-2--------------|
|------------------|--10----10--|------7--3----|-------------|----------------|
|-10-10--10--10-10-|------------|--------------|-------------|----------------|

|--0-------------|-----3-2-1-----0-|----------------|----3-2-1-----0-|
|-----1-3-0------|-----------4-----|------1---1-3---|----------4-----|
|--0----------o--|-o-----0-----5---|----2---2-------|------------5---|
|-----2-3-0---o--|-o---------------|--3-------------|----------------|
|----------------|---3-------------|----------------|--3-------------|
|----------------|-----------------|----------------|----------------|

|---8---8--8-----|---3-2-1-----0--|---------------|-----------|---------------|
|----------------|---------4------|---------------|----4------|---------------|
|---10--10-10----|-----0------5---|------1---1-3--|----5---7--|-------------o-|
|-------------5--|----------------|----2---2------|--------8--|-10--5-5-----o-|
|---8---8--8-----|-3--------------|--3------------|-----------|-10------3-----|
|----------------|----------------|---------------|----4---6--|-8-------------|

|----------------|-0---------------|----------------|----------------|
|----------------|---1-------------|----------------|----------------|
|-5--5--5----5-7-|------2--0-------|-5--5--5----5-7-|----------------|
|-6--6--6--------|-----------------|-6--6--6--------|-----5----------|
|----------6-----|---3--3----------|----------6-----|--3-----3-------|
|-4--------------|-----------------|-4--------------|----------------|

|----------------|-0--------------|-12-12--12-----12-|--15---------|
|----------------|---1------------|------------13----|-------------|
|-5--5--5----5-7-|------2--0------|-11-11--11--11-11-|--12----12---|
|-6--6--6--------|----------------|------------------|-------------|
|----------6-----|-3----3---------|------------------|--10----10---|
|-4--------------|----------------|-10-10--10--10-10-|-------------|

|---8--------5-|--5--7--6-5--|---0--3-5--1-3--|--0-------------|
|------8--5----|-------------|----------------|-----1-3-0------|
|-o------------|-------------|-0-0--4-5--2-1--|--0----------o--|
|-o-5--------3-|--3--5--4-3--|-2--------------|-----2-3-0---o--|
|------7--3----|-------------|----------------|----------------|
|--------------|-------------|----------------|----------------|

|---0-------------|-----1--1-------|---5-5-5-3-1----|--0-------------|
|------1----------|-----1--1-------|-0-6-6-6-5-3----|-----1----------|
|-o-------0---1---|--2--------2----|-0--------------|--------2--0----|
|-o---------------|--3--------3----|----------------|--------3-----3-|
|---3-----3---3---|----------------|----------------|--3-------------|
|-----------------|--1-----------1-|-3--------------|----------------|

|--0-------------|-----1--1-------|---1--1--1--0---|----------------|
|-----1----------|-----1--1-------|-0-3--3--3--1-3-|-1--------------|
|--------0---1---|--2--------2----|-0------------4-|----0---------o-|
|----------------|--3--------3----|----------------|-------2------o-|
|--3-----3---3---|----------------|----------------|-3--------3-----|
|----------------|--1-----------1-|-3--------------|----------------|

|----------------|-0---------------|----------------|----------------|
|----------------|---1-------------|----------------|----------------|
|-5--5--5----5-7-|------2--0-------|-5--5--5----5-7-|----------------|
|-6--6--6--------|-----------------|-6--6--6--------|-----5----------|
|----------6-----|---3--3----------|----------6-----|--3-----3-------|
|-4--------------|-----------------|-4--------------|----------------|

|----------------|-0--------------|-12-12--12-----12-|--15---------|
|----------------|---1------------|------------13----|-------------|
|-5--5--5----5-7-|------2--0------|-11-11--11--11-11-|--12----12\--|
|-6--6--6--------|----------------|------------------|-------------|
|----------6-----|-3----3---------|------------------|--10----10\--|
|-4--------------|----------------|-10-10--10--10-10-|-------------|

|-0-------------|-----1--1-------|---5-5-5-3-1----|--0-------------|
|----1----------|-----1--1-------|-0-6-6-6-5-3----|-----1----------|
|-------0---1---|--2--------2----|-0--------------|--------2--0----|
|---------------|--3--------3----|----------------|--------3-----3-|
|-3-----3---3---|----------------|----------------|--3-------------|
|---------------|--1-----------1-|-3--------------|----------------|

|--0-------------|-----1--1-------|---1--1--1--0---|---------------|
|-----1----------|-----1--1-------|-0-3--3--3--1-3-|-1-------------|
|--------0---1---|--2--------2----|-0------------4-|----0----------|
|----------------|--3--------3----|----------------|-------2-------|
|--3-----3---3---|----------------|----------------|-3--------3----|
|----------------|--1-----------1-|-3--------------|---------------|


Time is running out

|---9-9-9----10-10-10-|---11-11-11-----12-12-12----|
|-7--------8----------|-9-----------10-------------|
|---------------------|----------------------------|
|---------------------|----------------------------|
|---------------------|----------------------------|
|---------------------|----------------------------|

|-12-12--12-----12-|--15--------|--0-------------|-----1--1-------|---5-5-5-3-1----|
|------------13----|------------|-----1----------|-----1--1-------|-0-6-6-6-5-3----|
|-11-11--11--11-11-|--12----12--|--------0---1---|--2--------2----|-0--------------|
|------------------|------------|----------------|--3--------3----|----------------|
|------------------|--10----10--|--3-----3---3---|----------------|----------------|
|-10-10--10--10-10-|------------|----------------|--1-----------1-|-3--------------|


|--0-------------|--0-------------|-----1--1-------|---1--1--1--0---|----------------|
|-----1----------|-----1----------|-----1--1-------|-0-3--3--3--1-3-|-1--------------|
|--------2--0----|--------0---1---|--2--------2----|-0------------4-|----0-----------|
|--------3-----3-|----------------|--3--------3----|----------------|-------2--------|
|--3-------------|--3-----3---3---|----------------|----------------|-3--------3-----|
|----------------|--1-----------1-|-3--------------|----------------|----------------|

Flag Fanfare

|--3//15---------|-----------0-3-0-|-------------4---|--------------6--6-6-6-8--|
|----------------|---------1-------|-----------4---4-|------------6-------------|
|----------------|-------0---------|---------5-------|----------7---7--7-7-7-9--|
|----------------|-----2-----------|-------6---------|--------8-----------------|
|----------------|---3-------------|-----6-----------|------8-------------------|
|----------------|-3---------------|-4h8-------------|-6h10---------------------|
Tap to rate this tab
 
# A B C D E F G H I J K L M N O P Q R S T U V W X Y Z