Song name
# A B C D E F G H I J K L M N O P Q R S T U V W X Y Z

Misc Computer Games - Final Fantasy 7 - Tifa tab

-------------------------------------------------------------------------------
			     Tifa's Theme - Final Fantasy 7
-------------------------------------------------------------------------------
Tabbed by:heyitsthemokid

Tuning:Standard

Intro

e|--------------------------------------------|
B|--1----------------------1------------------|
G|------0---3---2--------------0---3---3-2-0-2|
D|--------------------------------------------|
A|--------------------------------------------|
E|--------------------------------------------|

e|--------------------------------------------------------|
B|--1----------------------1------------------------------|
G|------0---3---2--------------0---3---3-2-0-2-------0h2p0|
D|-----------------------------------------------3--------|
A|--------------------------------------------------------|
E|--------------------------------------------------------|

Main Theme

e|-------------------------------------|
B|-------------------------------------|
G|----2-0-2---------2-0-2--------------|
D|--------------------------------1----|
A|--3-------3-----3-------4-----4---4-3|
E|-------------------------------------|

e|--------------------------------1-0--|
B|------------------------1-----------3|
G|----2-0-2---------2-0-2-------2------|
D|-------------------------------------|
A|--3-------3-----3--------------------|
E|-------------------------------------|

e|-------------------------------------|
B|-------------------------------------|
G|----3-2-3---------3-2-3-0-----0---0-2|
D|--0-------0-----0---------------3----|
A|-------------------------------------|
E|-------------------------------------|

e|-----------------------------------|
B|-----------------------------------|
G|--2---2-0---0-3---2-0-0-----------0|
D|----------4-------------3-----0-3--|
A|-----------------------------------|
E|-----------------------------------|
Tap to rate this tab
 
# A B C D E F G H I J K L M N O P Q R S T U V W X Y Z