Song name
# A B C D E F G H I J K L M N O P Q R S T U V W X Y Z

Misc Computer Games - Starcraft 2 - Terran Theme tab

http://www.youtube.com/watch?v=NcghLSIpZlM

Well this tab is prepare for accoustic guitar but you can use a electric guitar
too, if you gonna use a electric guitar all the notes use with palm mute.

This is the part of 1:44 to 2:58.

Guitar 1 and 2:
|--------------------------------------------------------------------|
|--------------------------------------------------------------------|
|--------------------------------------------------------------------|
|--222--222-2-----222--222-2-------------555--555-5-----555--555-5---|
|--222--222-2-----222--222-2-------------555--555-5-----555--555-5---|(x2)
|--000--000-0-----000--000-0-------------333--333-3-----333--333-3---|



Guitar 1 only:
|-------------------------------------------------------------------|
|-------------------------------------------------------------------|
|-------------------------------------------------------------------|
|-222-222-222-222-33-00-222-222-222-222-----------------------------|
|-222-222-222-222-33-00-222-222-222-222--5-4-3-2--------------------|
|-000-000-000-000-------000-000-000-000-----------------------------|



Guitar 1
|------------------------------------------------------------------|
|------------------------------------------------------------------|
|------------------------------------------------------------------|
|-2--0-2-0-2-2-0-2-0--3-0-2--0-2-0-2-2-0-2-0-----------------------|(x2)
|-------------------------------------------5-4-3-2----------------|
|------------------------------------------------------------------|

|------------------------------------------------------------------|
|------------------------------------------------------------------|
|------------------------------------------------------------------|
|-2--0-2-0-2-2-0-2-0--3-0-2--0-2-0-2-2-0-2-0-----------------------|
|--------------------------------------------5---------------------|
|----------------------------------------------7-6-5---------------|


Guitar 2:
|-------------------------------------------------------------------|
|-------------------------------------------------------------------|
|-------------------------------------------------------------------|
|-222-222-222-222-33-00-222-222-222-222-----------------------------|(x3)
|-222-222-222-222-33-00-222-222-222-222-5---------------------------|
|-000-000-000-000-------000-000-000-000---7-6-5---------------------|


Guitar 1 and 2:
|-------------------------------------------------------------------|
|-------------------------------------------------------------------|
|-------------------------------------------------------------------|
|-------------------------------------------------------------------|(x3)
|-555-555-555-555-777-333-------------------------------------------|
|-555-555-555-555-777-333-------------------------------------------|

|---------|
|----2----|
|----2----|
|----2----|
|----0----|
|---------|


End!
Tap to rate this tab
 
# A B C D E F G H I J K L M N O P Q R S T U V W X Y Z