Song name
# A B C D E F G H I J K L M N O P Q R S T U V W X Y Z

Misc Computer Games - Pokemon - Fire Red Theme tab

-------------------------------------------------------------------------------
                             Fire Red Title Screen- Gamefreak
-------------------------------------------------------------------------------
Tabbed by: Cruz.Cruz.71404
E-mail: Cruz.Clues@gmail.com

Tuning: Standard tuning


First tab, couldn't find any decent ones here so i decided to tab it myself

e|-----------------------------------------------------------------------------|
B|-----------------------------------------------------------------------------|
G|-----------------------------------------------------------------------------|
D|-----------------------------------------------------------------------------|
A|-0-0-7--0-0-8--0-0-7--0-0-4--0-0-7--0-0-11-12--10--0-0-7--0-0-8--0-0-7-------|
E|-----------------------------------------------------------------------------|

e|---------------------------------------------------------------------------------|
B|---------------------------------------------------------------------------------|
G|--------------------------14-----------------------------------------------------|
D|---------------------------------------------------------------------------------|
A|-0-0-4--0-0-7--0-0-11-12------14--14--14.14.14--14o--14o--11-12-11-12-11-12------|
E|---------------------------------------------------------------------------------|

e|-----------------------------------------------------------------------------|
B|-----------------------------------------------------------------------------|
G|----------9-9p8p7---------------------999999--11-14-11--11.11.11.11.11.11----|
D|----6-9-6---------9999-6-9-----6-9-6-----------------------------------------|
A|-7----------------------------7----------------------------------------------|
E|-----------------------------------------------------------------------------|

e|-----------------------------------------------------------------------------|
B|-----------------------------------------------------------------------------|
G|-14-11-9-989898--------------------------------------------------------------|
D|-----------------------------------------------------------------------------|
A|-----------------14--14--14.14.14--14o--14o----------------------------------|
E|-----------------------------------------------------------------------------|


************************************

| /   slide up
| \   slide down
| h   hammer-on
| p   pull-off
| ~   vibrato
| +   harmonic
| x   Mute note
| b   Bend
| pb  Pre-bend
| br  Bend release
| pbr Pre-bend release
| brb Bend release bend

************************************
Tap to rate this tab
 
# A B C D E F G H I J K L M N O P Q R S T U V W X Y Z