Song name
# A B C D E F G H I J K L M N O P Q R S T U V W X Y Z

Misc Computer Games - The Legend Of Zelda The Wind Waker - Earth Gods Lyric tab

-------------------------------------------------------------------------------
			     The Legend of Zelda: The Wind Waker - Earth God's Lyric
-------------------------------------------------------------------------------
Tabbed by:Xaxu
Tuning:Standard

This is an arrangement by Richard Schaefer and composed by Koji Kondo.
The video from timing is here = http://www.youtube.com/watch?v=09rG4gIxk3M

  0:01 - 0:10
e|---------2--0------------------------------------------0--2---0--|
B|-------3------3--2--3--0---2---3--0--2------3--0--2--3------3----|
G|--2--2-------------------0---2---------2--0----------------------|
D|-----------------------------------------------------------------|
A|-----------------------------------------------------------------|
E|-----------------------------------------------------------------|

  0:11 - 0:20
e|---------2--0-----------------------------0--2--3--0----------|
B|-------3------3--2--3--0---2---3--0--2--3------------2--3--3--|
G|--2--2-------------------0---2--------------------------------|
D|--------------------------------------------------------------|
A|--------------------------------------------------------------|
E|--------------------------------------------------------------|

Repeat till infinity. Short but very sweet song.

| /  slide up
| \  slide down
| h  hammer-on
| p  pull-off
| ~  vibrato
| +  harmonic
| x  Mute note
===============================================================================
Tap to rate this tab
# A B C D E F G H I J K L M N O P Q R S T U V W X Y Z