Song name
# A B C D E F G H I J K L M N O P Q R S T U V W X Y Z

Misc Computer Games - Halo 2 Theme tab

------------------------------------------------------------------------
         Halo Theme Rhythm   -  Misc Computer Games Tabs
------------------------------------------------------------------------
 
 Halo Mjolnir Mix 	
 composed by: Martin O' Donnell
 played by: Steve Vai


 Tabbed by: James Cotton
 Email:thebengalsfan05@yahoo.com
  
 theres a tab for the lead but no tab for rhythm so i put this together for
 those of you who wanted to learn it with a friend for a talent show or just
 because it sounds cool this is my first tab and im 99.9% its correct
  

 Tuning:standard
  play this after the lead intro ends with the sustained harmonic
e|---------------------------------------------------------------------------| 
B|---------------------------------------------------------------------------|
G|---------------------------------------------------------------------------|
D|-----------9------------11------------12-----------14----14\12\9-----------| x3
A|-----------7------------9-------------10-----------12----12\10\7-----------|
E|-10\-0-0-0--------0-0-0---------0-0-0---------0-0-0------------------------|
  

  play this part with upstrums muting the other strings
e|--x-x-x--x--x--x---x-x---x--x----------------------------------------------|
B|--x-x-x--x--x--x---x-x---x--x----------------------------------------------|
G|--x-x-x--x--x--x---7-7---x--x----------------------------------------------|
D|--9-9-9--12-12-12--9-9---12-12\11\9----------------------------------------| x2
A|--7-7-7--10-10-10--x-x---10-10\9 \7----------------------------------------|
E|--x-x-x--9--9--9---8-8---x--x----------------------------------------------|


e|---------------------------------------------------------------------------|
B|---------------------------------------------------------------------------|
G|---------------------------------------------------------------------------|
D|---------9------------11------------12------------14----14\12\9------------|
A|---------7------------9-------------10------------12----12\10\7------------|
E|---0-0-0--------0-0-0---------0-0-0---------0-0-0--------------------------|

  listen to song to time how long to hold notes
  let ring----------|  |----------|  |----------|  |-----|
e|---------------------------------------------------------------------------|
B|---------------------------------------------------------------------------|
G|---------------------------------------------------------------------------|
D|-------9-----------11------------12------------14--------------------------| x3
A|-------7-----------9-------------10------------12--------------------------|
E|---0-0---------------------------------------------------------------------|
  after this part^ wait for lead solo fill to end 

e|---------------------------------------------------------------------------|
B|---------------------------------------------------------------------------|
G|---------------------------------------------------------------------------|
D|---------------------------------------------------------------------------| 
A|---------------------------------------------------------------------------|
E|---------------------------------------------------------------------------|

 
e|--x-x-x--x--x--x---x-x-----------------------------------------------------|
B|--x-x-x--x--x--x---x-x-----------------------------------------------------|
G|--x-x-x--x--x--x---7-7-----------------------------------------------------|
D|--9-9-9--12-12-12--9-9---12-12\11\9----------------------------------------| x2
A|--7-7-7--10-10-10--x-x---10-10\9 \7----------------------------------------|
E|--x-x-x--9--9--9---8-8-----------------------------------------------------|

  after this ends wait for the second solo fill to stop
e|---------------------------------------------------------------------------|
B|---------------------------------------------------------------------------|
G|---------------------------------------------------------------------------|
D|---------9------------11------------12------------14----14\12\9------------|
A|---------7------------9-------------10------------12----12\10\7------------|
E|---0-0-0--------0-0-0---------0-0-0---------0-0-0--------------------------|


e|---------------------------------------------------------------------------|
B|---------------------------------------------------------------------------|
G|---------------------------------------------------------------------------|
D|---------------------------------------------------------------------------| 
A|---------------------------------------------------------------------------|
E|---------------------------------------------------------------------------|


e|---------------------------------------------------------------------------|
B|---------------------------------------------------------------------------|
G|---------------------------------------------------------------------------|
D|---------9------------11------------12------------14----14\12\9------------| x2
A|---------7------------9-------------10------------12----12\10\7------------|
E|---0-0-0--------0-0-0---------0-0-0---------0-0-0--------------------------|


e|--x-x-x--x--x--x---x-x-----------------------------------------------------|
B|--x-x-x--x--x--x---x-x-----------------------------------------------------|
G|--x-x-x--x--x--x---7-7-----------------------------------------------------|
D|--9-9-9--12-12-12--9-9---12-12\11\9----------------------------------------| x2
A|--7-7-7--10-10-10--x-x---10-10\9 \7----------------------------------------|
E|--x-x-x--9--9--9---8-8-----------------------------------------------------|
 

e|---------------------------------------------------------------------------|
B|---------------------------------------------------------------------------|
G|---------------------------------------------------------------------------|
D|---------9------------11------------12------------14----14\12\9------------|
A|---------7------------9-------------10------------12----12\10\7------------|
E|---0-0-0--------0-0-0---------0-0-0---------0-0-0--------------------------|


  let ring----------|  |----------|  |----------|  |-----|
e|---------------------------------------------------------------------------|
B|---------------------------------------------------------------------------|
G|---------------------------------------------------------------------------|
D|-------9-----------11------------12------------14--------------------------| x3
A|-------7-----------9-------------10------------12--------------------------|
E|---0-0---------------------------------------------------------------------|


e|--x-x-x--x--x--x---x-x-----------------------------------------------------|
B|--x-x-x--x--x--x---x-x-----------------------------------------------------|
G|--x-x-x--x--x--x---7-7-----------------------------------------------------|
D|--9-9-9--12-12-12--9-9---12-12\11\9----------------------------------------| x2
A|--7-7-7--10-10-10--x-x---10-10\9 \7----------------------------------------|
E|--x-x-x--9--9--9---8-8-----------------------------------------------------|


e|---------------------------------------------------------------------------|
B|---------------------------------------------------------------------------|
G|---------------------------------------------------------------------------|
D|---------9------------11------------12------------14----14\12\9------------|
A|---------7------------9-------------10------------12----12\10\7------------|
E|---0-0-0--------0-0-0---------0-0-0---------0-0-0--------------------------|


e|---------------------------------------------------------------------------| 
B|---------------------------------------------------------------------------|
G|---------------------------------------------------------------------------|
D|-----------9------------11------------12-----------14----14\12\9-----------| x2
A|-----------7------------9-------------10-----------12----12\10\7-----------|
E|-10\-0-0-0--------0-0-0---------0-0-0---------0-0-0------------------------|

  all the open notes can be played with palm mutes(thats the way i do it)
  i think it sounds good especially for the rhythm role but i think that
  steve vai may play it without palm mutes, so i left it open too you
 


| /  slide up
| \  slide down
| h  hammer-on
| p  pull-off
| ~  vibrato
| +  harmonic
| x  Mute note
===============================================================================

well thats it please leave comments, and any corrections or suggestions email me
at the email address at the top
Tap to rate this tab
# A B C D E F G H I J K L M N O P Q R S T U V W X Y Z