Song name
# A B C D E F G H I J K L M N O P Q R S T U V W X Y Z

Misc Scales - E Minor Pentatonic Scale tab

-------------------------------------------------------------------------------
                             Pentatonic Scale Practice
-------------------------------------------------------------------------------
Tabbed by:Nick SnackPacks
E-mail:Nickwilhelmson@yahoo.com

Tuning:Standard

e|---15---12------12---------------------------------------------------------|
B|------------15------15--12----15----12-------12----------------------------|
G|----------------------------------------14------14---12----14---12---------|
D|---------------------------------------------------------------------------|
A|---------------------------------------------------------------------------|
E|---------------------------------------------------------------------------|

e|---------------------------------------------------------------------------|
B|---------------------------------------------------------------------------|
G|---12----------------------------------------------------------------------|
D|14------14--12---(14)------------------------------------------------------|
A|---------------------------------------------------------------------------|
E|---------------------------------------------------------------------------|


************************************

| /   slide up
| \   slide down
| h   hammer-on
| p   pull-off
| ~   vibrato
| +   harmonic
| x   Mute note
| b   Bend
| pb  Pre-bend
| br  Bend release
| pbr Pre-bend release
| brb Bend release bend

************************************
Tap to rate this tab
# A B C D E F G H I J K L M N O P Q R S T U V W X Y Z