Song name
# A B C D E F G H I J K L M N O P Q R S T U V W X Y Z

Misc Traditional - Amazing Grace tab

----------------------------------------------------------------------------
		    Amazing Grace - Traditional
----------------------------------------------------------------------------


Tabbed by: Dave S. 
Email: Prime-Prine@hotmail.com

Tuning: OPEN D (D, A, D, F#, A, D,)



  E  E  Q   Q   Q   T T T T E T E.. Q   Q   T T T T E   Q   Q   Q
|----0--0-----------2h4p2p0---2h4-----------2h4p2p0------------------|
|-0-------------------------0-------0---------------0---5------------|
|---------------------------0-----------------------0-------5--------|
|-----------0-------0---------------0-------0---------------0--------|
|--------------------------------------------------------------------|
|-------0-------0-------------0---------0---------------5-------5----|


  T T T T E Q   Q   Q   E  E  Q   Q   Q   T T T T E T E.. Q  Q   S S E Q
|--------------------------0--0-----------2h4p2p0---2h4----------4s7---7--|
|-2h5p2p0---0-----------0-------------------------0-------0----------0----|
|---------0---------------------------------------0-----------------------|
|---------------0-------0---------0-------0---------------0------0--------|
|-------------------------------------------------------------------------|
|-0---------0-------0---------0-------0-------------0--------0---------7--|


  Q   Q    T T S E Q   Q   Q  E  S.. Q   Q   Q   T T T T E T E.. Q   Q
|---------11p9p7---7----------4------7-----------2h4p2p0---2h4------------|
|----------------7---------------0-----------------------0-------0--------|
|-7--------------------7---------------------------------0----------------|
|-7--------7-----------7------0----------0-------0---------------0--------|
|-------------------------------------------------------------------------|
|-----7------------7-------7---------0-------0-------------0---------0----|


  T T T T E  Q   Q   Q   T T T T E Q   Q   Q   E  E  Q  Q   Q   T T T T E
|-2h4p2p0-----------------------------------------0--0-----------2h4p2p0---|
|---------0--5-----------2h5p2p0---0-----------0-------------------------0-|
|---------0------5---------------0---------------------------------------0-|
|-0--------------0---------------------0-------0---------0-------0---------|
|--------------------------------------------------------------------------|
|------------5-------5---0---------0-------0---------0-------0-------------|


  T E.. Q   Q   T T T T E  Q   Q   Q   Q   W
|-2h4-----------2h4p2p0----0---------------12----|
|-------0---------------0--------------5---12----|
|-----------------------0--------------5----0----|
|-------0-------0--------------0-------0----0----|
|-------------------------------------------0----|
|-0---------0--------------0-------0---5----0----|



| /  slide up
| \  slide down
| h  hammer-on
| p  pull-off
| ~  vibrato
| +  harmonic
| x  Mute note
==========================================================================
Tap to rate this tab
 
# A B C D E F G H I J K L M N O P Q R S T U V W X Y Z