Song name
# A B C D E F G H I J K L M N O P Q R S T U V W X Y Z

Misc Traditional - Amazing Grace tab

this is for my music final project.
e|---------------0---------0----------------------------0----0--------0---3----|
B|----------1------1--------3----1-----------------1-----1-------3-------------|
G|---0----------------------------------2-----0--0-----------------------------|
D|-----------------------------------------------------------------------------|
A|-----------------------------------------------------------------------------|
E|-----------------------------------------------------------------------------|

e|--0----3-----0-----3---0----------------------------------------------------|
B|------------------------------1-----------------1---------------------------|
G|-------------------------------------0----2---------2-----0-----------------|
D|----------------------------------------------------------------------------|
A|----------------------------------------------------------------------------|
E|----------------------------------------------------------------------------|

after you finish the tab, just repeat like the first part.

thankies
Tap to rate this tab
 
# A B C D E F G H I J K L M N O P Q R S T U V W X Y Z