Song name
# A B C D E F G H I J K L M N O P Q R S T U V W X Y Z

Misc Traditional - Amazing Grace tab

Amazing Grace (Harmonics Version)

Key:

* : harmonic
X(Y) : finger X with neck hand; finger Y harmonic with pick hand
~ : vibrato

e:-------------------12*-----------12*------------------|
B:---------------7*----------7*------------12*----------|
G:------7*-7*------------7*------------ 7*--------------|
D:----------------------------------------------7*------|
A:--5*--------------------------------------------------|
E:------------------------------------------------------|


e:-------------------12*-----------12*-12*--------------|
B:---------------7*----------7*-------------------------|
G:------7*-7*------------7*-----------------------------|
D:-------------------------------------------3*-3*------|
A:--5*--------------------------------------------------|
E:------------------------------------------------------|


e:-2(14)-2(14)-5(17)-5(17)~--2(14)-0(12)------2(14)~~---|
B:---------------------------------------3(15)----------|
G:------------------------------------------------------|
D:------------------------------------------------------|
A:------------------------------------------------------|
E:------------------------------------------------------|


e:-0(12)------------------------------------------------|
B:------3(15)~~-0(12)-----------------------------------|
G:--------------------2(14)~~---------------------------|
D:------------------------------------------------------|
A:------------------------------------------------------|
E:------------------------------------------------------|


e:-------------------12*--------------------------------|
B:---------------7*----------7*----12*-12*--------------|
G:------7*-7*------------7*-----------------------------|
D:------------------------------------------5*-5*~~-----|
A:--5*--------------------------------------------------|
E:------------------------------------------------------|

e:--------------------0(12)--2(7)~~-----------------------|
B:--------------3(15)-------------------------------------|
G:--------2(14)-------------------------------------------|
D:--0(12)-------------------------------------------------|
A:--------------------------------------------------------|
E:--------------------------------------------------------|
Tap to rate this tab
# A B C D E F G H I J K L M N O P Q R S T U V W X Y Z