Song name
# A B C D E F G H I J K L M N O P Q R S T U V W X Y Z

Misc Traditional - Romance De Amour tab

-------------------------------------------------------------------------------
                             Romance De Amour - Traditional
-------------------------------------------------------------------------------
Tabbed by:ronad2
E-mail:manupremruthu@yahoo.com

Tuning:EADGBe

Scale:D Minor,Change To D Major.

Time Signature:6/8

Tempo:60 BPM

A fairly easy song,helps fingering.I've Also Given The chords Above The Tabs.

Please Rate. 

   Dm                                            Gm 
  
e|-5-5-5-5-3---|-----------5-|-10-10-10-10-8-6-|-6-5-3-3-5-6-|
B|-----------6-|-6-5-3-3-6---|-----------------|-------------|
G|-------------|-------------|-----------------|-------------|
D|-------------|-------------|-----------------|-------------|
A|-------------|-------------|-----------------|-------------|
E|-------------|-------------|-----------------|-------------|

   A7            Dm            A7            Dm

e|-5-6-5-9-6-5-|-5-3---------|-------------|-------------|
B|-------------|-----6-6-5-3-|-5-5-5-5-6-5-|-3-----------|
G|-------------|-------------|-------------|-------------|
D|-------------|-------------|-------------|-------------|
A|-------------|-------------|-------------|-------------|
E|-------------|-------------|-------------|-------------|

Scale Change To D Major

   D             A7                          D

e|-2-2-2-2-0---|-------------|-7-7-7-7-9-7-|-7-5-5-5-7-9-|
B|-----------3-|-3-2-2-2-1-2-|-------------|-------------|
G|-------------|-------------|-------------|-------------|
D|-------------|-------------|-------------|-------------|
A|-------------|-------------|-------------|-------------|
E|-------------|-------------|-------------|-------------|

            D7       G             D     A7      D

e|-10-10-10-10-9-8-|-7-7-7-7-5-3-|-2-2-2-2-3-0-|-------------|
B|-----------------|-------------|-------------|-3-----------|
G|-----------------|-------------|-------------|-------------|
D|-----------------|-------------|-------------|-------------|
A|-----------------|-------------|-------------|-------------|
E|-----------------|-------------|-------------|-------------|

Back To D Minor (Actually D.C Al Fine)

 Dm                                            Gm 
  
e|-5-5-5-5-3---|-----------5-|-10-10-10-10-8-6-|-6-5-3-3-5-6-|
B|-----------6-|-6-5-3-3-6---|-----------------|-------------|
G|-------------|-------------|-----------------|-------------|
D|-------------|-------------|-----------------|-------------|
A|-------------|-------------|-----------------|-------------|
E|-------------|-------------|-----------------|-------------|

   A7            Dm            A7            Dm

e|-5-6-5-9-6-5-|-5-3---------|-------------|-------------|
B|-------------|-----6-6-5-3-|-5-5-5-5-6-5-|-3-----------|
G|-------------|-------------|-------------|-------------|
D|-------------|-------------|-------------|-------------|
A|-------------|-------------|-------------|-------------|
E|-------------|-------------|-------------|-------------|

FINE
Tap to rate this tab
# A B C D E F G H I J K L M N O P Q R S T U V W X Y Z