Song name
# A B C D E F G H I J K L M N O P Q R S T U V W X Y Z

Misc Unsigned Bands - Thinking Fellers Union Local 282 - Noble Experiment tab

Thinking Fellers Union Local 282
Noble Experiment
From Strangers From The Universe(1994) 

INTRO

   G                        5x

E-------------------------------|
B-------------------------------|
G---------------4-------4-------|
D-------5r----------------------|
A---------------5-------5-------|
E-------3r----------------------|




VERSE


If the  sad   -  ness   of      li -  fe  ma - kes you  

   G

E----------------------------------------------------------------|
B----------------------------------------------------------------|
G---------------4-------4---------------4-------4----------------|
D----------------------------------------------------------------|
A---------------5-------5---------------5-------5----------------|
E-------3------------------------3-------------------------------|


        ti -   re  -    d .            And      the   

   C

E----------------------------------------------------------------|
B----------------------------------------------------------------|
G---------------9-------9---------------9-------9----------------|
D----------------------------------------------------------------|
A---------------10------10--------------10------10---------------|
E-------8------------------------8-------------------------------|

        fai  -  lures   of       man     ma - ke  you   

  D7/F#

E----------------------------------------------------------------|
B---------------1-------1---------------1-------1----------------|
G---------------2-------2---------------2-------2----------------|
D----------------------------------------------------------------|
A----------------------------------------------------------------|
E-------2------------------------2-------------------------------|



        sigh .      

   G

E----------------------------------------------------------------|
B----------------------------------------------------------------|
G---------------4-------4---------------4-------4----------------|
D----------------------------------------------------------------|
A---------------5-------5---------------5-------5----------------|
E-------3------------------------3-------------------------------|




            .....

CHORUS


 . . .  win  -  ds up   and      calls   it      a  

  Guitar 1

   Am                            Am

E----------------------------------------------------------------|
B----------------------------------------------------------------|
G---------------5-------5---------------5-------5----------------|
D----------------------------------------------------------------|
A---------------7-------7---------------7-------7----------------|
E-------5------------------------5-------------------------------|

  Guitar(?) 2

   Am                            F#dim

E----------------------------------------------------------------|
B----------------------------------------------------------------|
G---------------5-------5---------------2-------2----------------|
D----------------------------------------------------------------|
A---------------7-------7---------------3-------3----------------|
E-------5------------------------2-------------------------------|



        day .      

   G

E----------------------------------------------------------------|
B----------------------------------------------------------------|
G---------------4-------4---------------4-------4----------------|
D----------------------------------------------------------------|
A---------------5-------5---------------5-------5----------------|
E-------3------------------------3-------------------------------|


----------------------------------//----------------------------------

Enjoy!

Send any corrections and suggestions to

Luiz
(lucifernando@gmail.com)
Tap to rate this tab
 
# A B C D E F G H I J K L M N O P Q R S T U V W X Y Z