Song name
# A B C D E F G H I J K L M N O P Q R S T U V W X Y Z

Misc Unsigned Bands - Banda Ni Paul - What It Feels Like To Love The Wrong Ones tab

Help us improve GuitareTab! Take a short survey!
----------------------------------------------------------------------------               
                          WHAT IT FEELS LIKE TO LOVE THE WRONG ONES?

----------------------------------------------------------------------------

composed by: orlando dumlao
Tabbed by:orlando dumlao
Email:dumlaomiguel_12@yahoo.com

Tuning:


INTRO (Am-Am-F-C)
(guitar)

e|---------------------------------------------------------------------------|
B|---------------------------------------------------------------------------|
G|---2-2-4-2-2-5-2-2-4-2-2-5-2-2-2-2-(2X)-------5-4h5-4-----7-5-4------------|
D|------------------------------------------3-3---------5-5-------5----------|
A|---------------------------------------------------------------------------|
E|---------------------------------------------------------------------------|

e|---------------------------------------------------------------------------|
B|---------------------------------------------------------------------------|
G|---2-2-4-2-2-5-2-2-4-2-2-5-2-2-2-2-(2X)-------5-4h5-4-----7-5-4------------|
D|------------------------------------------3-3---------5-5-------5----------|
A|---------------------------------------------------------------------------|
E|---------------------------------------------------------------------------|

e|---------------------------------------------------------------------------|
B|---------------------------------------------------------------------------|
G|-------5-----7-----10-----7---9---------------5-4h5-4-----7-5-4------------|
D|---7-7---7-7---7-7----7-7---7-------------3-3---------5-5-------5----------|
A|---------------------------------------------------------------------------|
E|---------------------------------------------------------------------------|

e|---------------------------------------------------------------------------|
B|---------------------------------------------------------------------------|
G|--------5-----7-----10-----7---9---------------5-4h5-4-----7-5-4-----------|
D|----7-7---7-7---7-7----7-7---7-------------3-3---------5-5-------5-7-------|
A|---------------------------------------------------------------------------|
E|---------------------------------------------------------------------------|
Related for Banda Ni Paul - What It Feels Like To Love The Wrong Ones tab