Song name
# A B C D E F G H I J K L M N O P Q R S T U V W X Y Z

Misc Unsigned Bands - Ally Kerr - Sore Feet Song tab

Tuning: Standard w/ Capo on 4th fret

Tabbed by: Ty Lovejoy

Intro
            -3- -3-     -3-     -3-         -3- -3- 
e|---||-----5-2-3-2-----0-------0-----|-----5-2-3-2-----0--------2---------||
B|---||o------------------3-------3---|--------------------3--------3-----o||
G|---||-----2--------2-------0-------0|------------------------------------||
D|---||--0----------------------------|-----0--------0--------0------------||
A|--0||o--------0-------3-------3-----|-----------------0--------0-----0--o||
E|---||-------------------------------|--3------3--------------------------||

Verse Progression
                                                 -3- -3-
e||--------0-------------0-----|-------0---------5-2-3-2--||
B||o---3-------3-----3---3-----|-------3-----------------o||
G||------2-------2---------0---|---0-------0-----2--------||
D||--0-------0---------2-----2-|-----0-------0-0----------||
A||o---------------3-----------|---------------------0---o||
E||----------------------------|-3-------3----------------||
   
   - 3 -   -3- - 3 -   -3-
e|-------0-----------0-----|-------0---------------------|
B|-------------------------|-------3-----0---0---1---0---|
G|-----0---0-------0---0---|-----0---0-----0---0---0---0-|
D|---2-------2---2-------2-|---0-------0-----0-------0---|
A|-0-----------3-----------|-----------------------------|
E|-------------------------|-3-----------3-------3-------|


   - 3 -   -3- - 3 -   -3-
e|-------0-----------0-----||--0-----2---------0---2-3---|
B|-------------------------||o---3-------3---------------|
G|-----0---0-------0---0---||--------------------0-----0-|
D|---2-------2---2-------2-||------0-------0-------------|
A|-0-----------3-----------||o-0-------0-----3-----3-----|
E|-------------------------||----------------------------|


e|-5---3-2-----------0----||--------0-------------0-------|
B|-----------3-----------o||----3-------3-----3-------3---|
G|---------------0--------||------2-------2-----2-------2-|
D|---0-----0---0-------0--||--0-------0-----0-------0-----|
A|-----------1-----1-----o||------------------------------|
E|-3---3------------------||------------------------------|

     -3- -3-
e|---5-2-3-2---0-----0-------|
B|---------------3-------3---|
G|---2-------2-----2-------2-|
D|-0-----0-----0-------0-----|
A|---------------------------|
E|---------------------------|
Tap to rate this tab
 
# A B C D E F G H I J K L M N O P Q R S T U V W X Y Z