Song name
# A B C D E F G H I J K L M N O P Q R S T U V W X Y Z

Misc Unsigned Bands - Purplepuke - Id Fight For You Until The Skies Come Crashing Down tab

intro:

e|------7p5h7p5\4/5-|
B|------------------|
G|------------------|
D|-66---------------|
A|-66---------------|(x4, the G#m is palm muted)
E|-44---------------|

Verse:

e|-----------------------------------------|
B|-----------------------------------------|
G|-----------------------------------------|
D|-------------77777777--------------------|(x4, the harmonic is only played the first
A|----66666666-55555555-99999999-77777777--|time, not on the other 3, and it's all palm
E|-4+-44444444----------77777777-55555555--|muted)

Chorus: 

e|---------------------------------------------------|
B|---------------------------------------------------|
G|---------------------------------------------------|
D|-9-9-99-9-99-6-6-66-6-66---------------------------|
A|-7-7-77-7-77-4-4-44-4-44-7-7-77-7-77-4-4-44-4-44---|
E|-------------------------5-5-55-5-55-2-2-22-2-22---|

e|----------------------------------------------------------|
B|----------------------------------------------------------|
G|----------------------------------------------------------|
D|-9999999-6666666------------------------------------------|
A|-7777777-4444444-7777777-4444444-6-6-66-7-77-6-6-66-7-77--|
E|-----------------5555555-2222222-4-4-44-5-55-4-4-44-5-55--|

-Repeat intro-

-Repeat Verse-

-Repeat Chorus-

Bridge

e|----------------------------------|
B|----------------------------------|
G|----------------------------------|
D|----------------------------------|
A|-2-2-2-2-6-6-6-6-7-7-7-7-7-7-7-7--|(x4, all palm muted)
E|-0-0-0-0-4-4-4-4-5-5-5-5-5-5-5-5--|

e|----------------------------------|
B|----------------------------------|
G|----------------------------------|
D|----------------------------------|
A|-2-2-2-2-6-6-6-6-7-7-7-7/9--------|(all palm muted, except the last chord;
E|-0-0-0-0-4-4-4-4-5-5-5-5/7--------|the last chord is held for 4 beats)

-Repeat Chorus-

Outro: 

e|------7p5h7p5\4/5-|
B|------------------|
G|------------------|
D|-66---------------|
A|-66---------------|(x4, the G#m is palm muted)
E|-44---------------|

e|-------|
B|-------|
G|-------|
D|-66-66-|
A|-66-66-|(the last chord isn't held or anything it just ends there)
E|-44-44-|


END!!!!!!!!!!


| /  slide up
| \  slide down
| h  hammer-on
| p  pull-off
| ~  vibrato
| +  harmonic
| x  Mute note


Tap to rate this tab
# A B C D E F G H I J K L M N O P Q R S T U V W X Y Z