Song name
# A B C D E F G H I J K L M N O P Q R S T U V W X Y Z

Misc Unsigned Bands - Fornever Yours - Heres To The Pencil Pushers May They All Get Lead Poisoning tab

-----------------------------------------------------------------------------------------
    Here's To  The Pencil Pushers, May They All Get Lead Poisoning by ForNever Yours
-----------------------------------------------------------------------------------------
Tabbed by: RMorales519	
Email: rmorales519@yahoo.com

Hope you all enjoy the tab and if you have any questions, just shoot me an email. :)

Tuning: Drop D

Guitar 1
Intro:
E|-----------------------------------------------------------------------------|
B|-----------------------------------------------------------------------------|
G|-----------------------------------------------------------------------------| Repeat 3x
D|-----------------------------------------------------------------------------|
A|--------7h8------7h8-----------7--7------------------------------------------|
D|---0-0------0-0------000-000--8-10-------------------------------------------|
     * *      * *      *** ***

E|-----------------------------------------------------------------------------|
B|-----------------------------------------------------------------------------|
G|-----------------------------------------------------------------------------|
D|------------------------------\12--------------------------------------------|
A|--------7h8------7h8----------\12--------------------------------------------|
D|---0-0------0-0------000-000--\12--------------------------------------------|
     * *      * *      *** ***

Verse:
E|-----------------------------------------------------------------------------|
B|-----------------------------------------------------------------------------|
G|-----------------------------------------------------------------------------| Repeat 3x
D|-----------------------------------------------------------------------------|
A|--------7h8------7h8-----------7--7------------------------------------------|
D|---0-0------0-0------000-000--8-10-------------------------------------------|
     * *      * *      *** ***

E|-----------------------------------------------------------------------------|
B|-----------------------------------------------------------------------------|
G|-----------------------------------------------------------------------------|
D|----------------------------0------------------------------------------------|
A|--------7h8------7h8--------0------------------------------------------------|
D|---0-0------0-0------000-0000------------------------------------------------|
     * *      * *      *** ****

E|-----------------------------------------------------------------------------|
B|-----------------------------------------------------------------------------|
G|-----------------------------------------------------------------------------|
D|-------0-----0-------------0-----0-320320------------------------------------|
A|-------0-----0----7--7-----0-----0-320320------------------------------------|
D|---00000-00000-0-8-10--00000-00000-320320------------------------------------|
     ***** ***** *       ***** ***** ******

E|-----------------------------------------------------------------------------|
B|-----------------------------------------------------------------------------|
G|-----------------------------------------------------------------------------|
D|-------0-----0-------------0-0-0-0-------------------------------------------|
A|-------0-----0----7--7-----0-0-0-0-------------------------------------------|
D|---00000-00000-0-8-10--00000-0-0-0-3-----------------------------------------|
     ***** ***** *       ***** * * * +

E|-----------------------------------------------------------------------------|
B|-----------------------------------------------------------------------------|
G|-----------------------------------------------------------------------------|
D|-------0-----0-------------0-----0-320320------------------------------------|
A|-------0-----0----7--7-----0-----0-320320------------------------------------|
D|---00000-00000-0-8-10--00000-00000-320320------------------------------------|
     ***** ***** *       ***** ***** ******

E|-----------------------------------------------------------------------------|
B|--------------------------------------9--------------------------------------|
G|--------------------------------------12-------------------------------------|
D|-------0-----0-------------0-0--0-0-0----8-7-3-2-----------------------------|
A|-------0-----0----7--7-----0-0--0-0-0----8-7-3-2-----------------------------|
D|---00000-00000-0-8-10--00000-0--0-0-0----8-7-3-2-----------------------------|
     ***** ***** *       ***** *  * * *

Breakdown:
E|-----------------------------------------------------------------------------|
B|-----------------------------------------------9-----------------------------|
G|-----------------------------------------------12----------------------------|
D|---00---000-0-00-----00---000-0-00-----0000000-------------------------------|
A|---00---000-0-00-----00---000-0-00-----0000000-------------------------------|
D|---00---000-0-00-----00---000-0-00-----0000000-------------------------------|
     **   *** * **     **   *** * **     *******

E|-----------------------------------------------------------------------------|
B|-----------------------------------9----9------------------------------------|
G|-----------------------------------12---12-----------------------------------|
D|---00---000-0-00-----00---000-0-00----0--------------------------------------|
A|---00---000-0-00-----00---000-0-00----0--------------------------------------|
D|---00---000-0-00-----00---000-0-00----0--------------------------------------|
     *    *** * *      *    *** * *     *

Pre-chorus
E|-----------------------------------------------------------------------------|
B|-----------------------------------------------------------------------------|
G|---7777777777777777/1010101010101010\66666666/-------------------------------|Repeat 2x
D|-----------------------------------------------------------------------------|
A|---5555555555555555/8-8-8-8-8-8-8-8-\44444444/-------------------------------|
D|-----------------------------------------------------------------------------|


E|-----------------------------------------------------------------------------|
B|-----------------------------------------------------------------------------|
G|---777777777777/10101010\66666666/7777\3333/---------------------------------|
D|-----------------------------------------------------------------------------|
A|---555555555555/8-8-8-8-\44444444/5555\1111/---------------------------------|
D|-----------------------------------------------------------------------------|


E|-----------------------------------------------------------------------------|
B|-----------------------------------------------------------------------------|
G|-----------------------------------------------------------------------------|
D|---12121212121212121212121212121212\1010101010101010\7777\3333---------------|
A|-----------------------------------------------------------------------------|
D|---10101010101010101010101010101010\8-8-8-8-8-8-8-8-\5555\1111---------------|


Chorus:
E|-----------------------------------------------------------------------------|
B|-----------------------------------------------------------------------------|
G|---7777777777777777----------------------------------------------------------|
D|---7777777777777777-7777777777777777-8888888888888888-3-3-2-2----------------|
A|---5555555555555555-7777777777777777-8888888888888888-3-3-2-2----------------|
D|--------------------7777777777777777-8888888888888888-3-3-2-2----------------|


E|-----------------------------------------------------------------------------|
B|-----------------------------------------------------------------------------|
G|---7777777777777777----------------------------------------------------------|
D|---7777777777777777-7777777777777777-8888888888888888-8-7-3-2----------------|
A|---5555555555555555-7777777777777777-8888888888888888-8-7-3-2----------------|
D|--------------------7777777777777777-8888888888888888-8-7-3-2----------------|

Bridge:
E|-----------------------------------------------------------------------------|
B|-----------------------------------------------------------------------------|
G|-----------------------------------------------------------------------------|
D|---0-------77----88---7---32-------------------------------------------------|
A|---0-------77----88---7---32-------------------------------------------------|
D|---0-------77----88---7---32-------------------------------------------------|
     *

E|-----------------------------------------------------------------------------|
B|-----------------------------------------------------------------------------|
G|-----------------------------------------------------------------------------|
D|---00--------00--88-88888-77---32---------00-000000-00--88-88888-77---32-----|
A|---00-000000-00--88-88888-77---32---------00-000000-00--88-88888-77---32-----|
D|---00-000000-00--88-88888-77---32---------00-000000-00--88-88888-77---32-----|
     ** ****** **     ***** **              ** ****** **     ***** ** 

Harmonized solo:
E|---/5~-----------------------------------------------------------------------|
B|--------6---8~---------------------------------------------------------------|
G|---------7-7---/10-9~-/7-6~-6h7-9-7-6-/10-9-7--------------------------------|
D|----------8-----------------------------------t8-t11-------------------------|
A|-----------------------------------------------------------------------------|
D|-----------------------------------------------------------------------------|


Chorus:
D|-----------------------------------------------------------------------------|
B|-----------------------------------------------------------------------------|
G|---7777777777777777----------------------------------------------------------|
D|---7777777777777777-7777777777777777-8888888888888888-3-3-2-2----------------|
A|---5555555555555555-7777777777777777-8888888888888888-3-3-2-2----------------|
D|--------------------7777777777777777-8888888888888888-3-3-2-2----------------|


E|-----------------------------------------------------------------------------|
B|-----------------------------------------------------------------------------|
G|---7777777777777777----------------------------------------------------------|
D|---7777777777777777-7777777777777777-8888888888888888-8-7-3-2----------------|
A|---5555555555555555-7777777777777777-8888888888888888-8-7-3-2----------------|
D|--------------------7777777777777777-8888888888888888-8-7-3-2----------------|


Breakdown:
E|-----------------------------------------------------------------------------|
B|-----------------------------------------------------------------------------|
G|-----------------------------------------------------------------------------|Repeat 2x
D|---0-0-00-00000-000-00-000000-00-00000-0-000---------------------------------|
A|---0-0-00-00000-000-00-000000-00-00000-0-000---------------------------------|
D|---0-0-00-00000-000-00-000000-00-00000-0-111---------------------------------|
     * * ** ***** *** ** ****** ** ***** * ***

E|-----------------------------------------------------------------------------|
B|-----------------------------------------------------------------------------|
G|-----------------------------------------------------------------------------|Repeat 8x
D|---0-0---0-0-0---------------------------------------------------------------|
A|---0-0---0-0-0---------------------------------------------------------------|
D|---0-0---0-0-0-1b------------------------------------------------------------|
     * *   * * *
  ^Slight changes in the breakdown at the end of the song, just listen to it and figure it out. 
   I'm too lazy to tab it all out. :)

************************************

| /   slide up
| \   slide down
| h   hammer-on
| p   pull-off
| ~   vibrato
| t   tremolo pick
| +   pinch harmonic
| *   Mute note
| b   Bend
| pb  Pre-bend
| br  Bend release
| pbr Pre-bend release
| brb Bend release bend

************************************
Tap to rate this tab
 
# A B C D E F G H I J K L M N O P Q R S T U V W X Y Z