Song name
# A B C D E F G H I J K L M N O P Q R S T U V W X Y Z

Misc Unsigned Bands - Blended Puppies - I Hate Pythagoras And His Stupid Theorem Live tab

-----------------------------------------------------------------------------
	 I Hate Pythagoras And His Stupid Theorem (Live) - Blended Puppies
-----------------------------------------------------------------------------

Tuning: Standard


INTRO                         PM.**   * * * *  * * *
e|----------------------------------------------------------------------|
B|----------------------------------------------------------------------|
G|----------------------------------------------------------------------|X2
D|-3-3-3-2----3-3------3-3-3-2---3-3--x-x-x-x--3-x-3--------------------|
A|-3-3-3-2----3-3------3-3-3-2---3-3--x-x-x-x--3-x-3--------------------|
E|-1-1-1-0----1-1------1-1-1-0---1-1--x-x-x-x--1-x-1--------------------|

INTERLUDE                               PM. **************
e|--------------------------------------------------------------------------|
B|--------------------------------------------------------------------------|
G|--------------------------------------------------------------------------|
D|-------------------------------3---2---0----------------------------------|
A|-----------------------------x-3-x-2-x-0----------------------------------|
E|-xxxxxxxx-1-xxxxxxx-3-xxx-2--x-1-x-0-x-1--1-1-1-1-1-1-1-1---4--3--2--1----|


SOLO
e|---------------------------------------------------------------------------|
B|--6(8)(6)---6---6-------------15-15-15-15-16-16-16-16-15-15-15-15----------|
G|----------9---9---9------------------------------------------------16-15\1-|
D|--------------------8---8h9p8----------------------------------------------|
A|----------------------7----------------------------------------------------|
E|---------------------------------------------------------------------------|


OUTRO                         PM.**   * * * *  * * *
e|----------------------------------------------------------------------|
B|----------------------------------------------------------------------|
G|----------------------------------------------------------------------|X3
D|-3-3-3-2----3-3------3-3-3-2---3-3--x-x-x-x--3-x-3--------------------|
A|-3-3-3-2----3-3------3-3-3-2---3-3--x-x-x-x--3-x-3--------------------|
E|-1-1-1-0----1-1------1-1-1-0---1-1--x-x-x-x--1-x-1--------------------|


LYRICS: I think you know the words to this one Nottingham.
        This is to the prick who made maths lessons shit.
        Pythagoras. (Song Starts)

        Intro: F**k You!
        Interlude: F**k You! F**k You! F**k You!
        Outro: F**k You! Mother F**ker!
Tap to rate this tab
 
# A B C D E F G H I J K L M N O P Q R S T U V W X Y Z