Misc Unsigned Bands - Ian Dsa And Noble Blood - Land Of A Thousand Hills tab

LEAD

Ian D'sa & Noble Blood - Land of a Thousand Hills

-Standard Tuning

--------------------|
---- First Verse ---|

For love and for country, its never the same

To men of high power, the two dont equate

When leaders of nations, and brokers of hate

Continue to play the most deadly of games

--------------------|
--- Second Verse ---|

They shuffle their demons, and deal out their sins

Hand out their weapons, like candy to kids

Pull on their people, like puppets on strings

To play out their war, in the court of the king

0:34
           Am
e|---------0---------------------------|
B|---------1---------------------------|
G|---------2---------------------------|
D|-----2---2---------------------------|
A|---2-----0---------------------------|
E|-0-----------------------------------|

--------------------|
------ Chorus ------|

And the fires keep burning in the middle of the night

0:39
       C           G
e|-------------------------------------|
B|-----------1-------------------------|
G|---------0---0---------0-------------|
D|-------2-------2-----0---0-----------|
A|-0-2-3-------------2-------2---------|
E|-----------------3-------------------|


The rivers keep flowing like the tears from your eyes

0:44
   Am           F
e|-------------------------------------|
B|-------1-----------------------------|
G|-----2---2----------2h3h2------------|
D|---2--------------3-------3----------|
A|-0--------------3--------------------|
E|------------0-1----------------------|


You can still hear the voices of all those who died

0:48
   C           G
e|-------0-----------------------------|
B|-------1-----------0-----------------|
G|-----0---0---------0-----------------|
D|---2-------2-----0---0---------------|
A|-3-------------2-------2-------------|
E|-------------3-----------------------|


In the land of a thousand hills

0:52
   F     Dm
e|-----------1-------------------------|
B|-----------3-------------------------|
G|-----2---2---------------------------|
D|-----3-0-----------------------------|
A|---3---------------------------------|
E|-1-----------------------------------|

--------------------|
---- First Solo ----|

0:54

e|-------------------------------------|
B|-------------------------------------|
G|---------------------2-2-------------|
D|-------------0h2-0-2-3-3-------------|
A|---0---0h2h3-------------------------|
E|-0-----------------------------------|

0:58

e|-------------------------------------|
B|-------------------------------------|
G|-2-0---2-0---0-1-1-1-1---------------|
D|-3-2-2-3-2-2-2-2-0-------------------|
A|-----3-----3-------3-2---------------|
E|-------------------------------------|

--------------------|
---- Third Verse ---|

We drank through the summer, and soaked in the sun

1:02
     Am                 Dm
e|---0------------------1--------------|
B|---1------------------3--------------|
G|---2------------------2--------------|
D|---2------------------0--------------|
A|---0------------------0--------------|
E|-0-----------------------------------|

While over the ocean, the killing begun

1:06
     C                  E
e|---0------------------0--------------|
B|---1------------------0--------------|
G|---0------------------1--------------|
D|---2------------------2--------------|
A|---3------------------2--------------|
E|----------------------0--------------|

They followed their leaders, and fired their guns

1:10
     Am                 Dm
e|---0------------------1--------------|
B|---1------------------3--------------|
G|---2------------------2--------------|
D|---2------------------0--------------|
A|---0------------------0--------------|
E|-------------------------------------|

We had no idea, of what was to come

1:14
     C        E         Am
e|---0--------0---------0--------------|
B|---1--------0---------1--------------|
G|---0--------1---------2--------------|
D|---2--------2---------2--------------|
A|---3--------2---------0--------------|
E|------------0------------------------|

--------------------|
------ Chorus ------|

And the fires keep burning in the middle of the night

1:22
       C           G
e|-------------------------------------|
B|-----------1-------------------------|
G|---------0---0---------0-------------|
D|-------2-------2-----0---0-----------|
A|-0-2-3-------------2-------2---------|
E|-----------------3-------------------|


The rivers keep flowing like the tears from your eyes

1:26
   Am           F
e|-------------------------------------|
B|-------1-----------------------------|
G|-----2---2----------2h3h2------------|
D|---2--------------3-------3----------|
A|-0--------------3--------------------|
E|------------0-1----------------------|


You can still hear the voices of all those who died

1:30
   C           G
e|-------0-----------------------------|
B|-------1-----------0-----------------|
G|-----0---0---------0-----------------|
D|---2-------2-----0---0---------------|
A|-3-------------2-------2-------------|
E|-------------3-----------------------|

They echo, they echo, like shots from a gun

1:34
     Am         F
e|---0----------1-1-1-1-1-1------------|
B|---1----------1-1-1-1-1-1------------|
G|---2----------2-2-2-2-2-2------------|
D|---2----------3-3-3-3-3-3------------|
A|---0----------3-3-3-3-3-3------------|
E|--------------1-1-1-1-1-1------------|

They echo, they echo, like the rhythm of your drum

1:38
     Am         F
e|---0----------1-1-1-1-1-1------------|
B|---1----------1-1-1-1-1-1------------|
G|---2----------2-2-2-2-2-2------------|
D|---2----------3-3-3-3-3-3------------|
A|---0----------3-3-3-3-3-3------------|
E|--------------1-1-1-1-1-1------------|

For one hundred days, you could never see the sun

1:42
     Am	        G
e|---0----------3----------------------|
B|---1----------3----------------------|
G|---2----------0----------------------|
D|---2----------0----------------------|
A|---0----------2----------------------|
E|--------------3----------------------|

In the land of a thousand hills

1:46
     F	        Dm
e|---1----------1----------------------|
B|---1----------3----------------------|
G|---2----------2----------------------|
D|---3----------0----------------------|
A|---3----------0----------------------|
E|---1---------------------------------|

--------------------|
--- Second Solo  ---|

1:49

e|-------------------------------------|
B|-------------------------------------|
G|-----14------------------------------|
D|-14b----14/12/10/12--------12-14-15--|
A|-------------------12----------------|
E|------------------------13----15-17--|

1:53

e|-------------------------------------|
B|-------------------------------------|
G|-14-12----14-12----12-13-13-14-16----|
D|-15-14-14-15-14-14-14-14-14-14-14----|
A|-------15-------15-------------------|
E|-------------------------------------|


1:57

e|----17-15----------------------------|
B|-17-------17-15b------------15-17-18-|
G|-----------------17b-14b-------------|
D|-------------------------15-15-17-19-|
A|-------------------------------------|
E|-------------------------------------|

2:01

e|-15-15-15----------------------16----|
B|-17-17-17-15b---------------15-15----|
G|--------------17b-14b----16----------|
D|----------------------18-------------|
A|-------------------------------------|
E|-------------------------------------|

--------------------|
--- Fourth Verse ---|

And years will have passed, til the world would find out

The truth of unthinkable violence, so loud

It shattered the heavens, and silenced the crowd

The highest almighty, cannot save us now

2:20
                     E
e|-------------------0-0-0-0-0-0-------|
B|-------------------0-0-0-0-0-0-------|
G|-------------------1-1-1-1-1-1-------|
D|-------------------2-2-2-2-2-2-------|
A|-------------------2-2-2-2-2-2-------|
E|-------------------0-0-0-0-0-0-------|

Oh my brother, oh my brother, tell me what have you done?!

2:22
     Am	                Dm
e|---0------------------1--------------|
B|---1------------------3--------------|
G|---2------------------2--------------|
D|---2------------------0--------------|
A|---0------------------0--------------|
E|-------------------------------------|

Well hide in the church, til the bulldozers come

2:26
     C	                E
e|---0------------------0--------------|
B|---1------------------0--------------|
G|---0------------------1--------------|
D|---2------------------2--------------|
A|---3------------------2--------------|
E|----------------------0--------------|

There are men with machetes, and children with guns

2:30
     Am                 Dm
e|---0------------------1--------------|
B|---1------------------3--------------|
G|---2------------------2--------------|
D|---2------------------0--------------|
A|---0------------------0--------------|
E|-------------------------------------|

Well never forgive you, for what you have done

2:34
     C        E         Am
e|---0--------0---------0-0-0----------|
B|---1--------0---------1-1-1----------|
G|---0--------1---------2-2-2----------|
D|---2--------2---------2-2-2----------|
A|---3--------2---------0-0-0----------|
E|------------0------------------------|

--------------------|
------ Chorus ------|

And the fires keep burning in the middle of the night

2:39
     C                  G
e|---0------------------3--------------|
B|---1------------------3--------------|
G|---0------------------0--------------|
D|---2------------------0--------------|
A|---3------------------2--------------|
E|----------------------3--------------|

The rivers keep flowing like the tears from your eyes

2:43
     Am                 F
e|---0------------------1--------------|
B|---1------------------1--------------|
G|---2------------------2--2h3h2-------|
D|---2------------------3--------3-----|
A|---0------------------3--------------|
E|--------------------0-1--------------|

You can still hear the voices of all those who died

2:47
     C                  G
e|---0------------------3--------------|
B|---1------------------3--------------|
G|---0------------------0--------------|
D|---2------------------0--------------|
A|---3------------------2--------------|
E|----------------------3--------------|

They echo, they echo, like a shot from a gun

2:51
     Am         F
e|---0----------1-1-1-1-1-1------------|
B|---1----------1-1-1-1-1-1------------|
G|---2----------2-2-2-2-2-2------------|
D|---2----------3-3-3-3-3-3------------|
A|---0----------3-3-3-3-3-3------------|
E|--------------1-1-1-1-1-1------------|

They echo, they echo, like the rhythm of your drum

2:55
     Am         F
e|---0----------1-1-1-1---1-1----------|
B|---1----------1-1-1-1---1-1----------|
G|---2----------2-2-2-2h3h2-2----------|
D|---2----------3-3-3-3---3-3----------|
A|---0----------3-3-3-3---3-3----------|
E|--------------1-1-1-1---1-1----------|

The rest of the world will expose all their lies

2:59
     Am         F
e|---0----------1-1-1-1---1-1----------|
B|---1----------1-1-1-1---1-1----------|
G|---2----------2-2-2-2h3h2-2----------|
D|---2----------3-3-3-3---3-3----------|
A|---0----------3-3-3-3---3-3----------|
E|--------------1-1-1-1---1-1----------|

And all those you silenced will once again rise

3:02
     Am	        F
e|---0----------1-1-1-1---1-1----------|
B|---1----------1-1-1-1---1-1----------|
G|---2----------2-2-2-2h3h2-2----------|
D|---2----------3-3-3-3---3-3----------|
A|---0----------3-3-3-3---3-3----------|
E|--------------1-1-1-1---1-1----------|

For one hundred days, you could never see the sky

3:07
     Am                 G
e|---0-0-0-0-0-0--------3-3-3-3-3-3----|
B|---1-1-1-1-1-1--------3-3-3-3-3-3----|
G|---2-2-2-2-2-2--------0-0-0-0-0-0----|
D|---2-2-2-2-2-2--------0-0-0-0-0-0----|
A|---0-0-0-0-0-0--------2-2-2-2-2-2----|
E|----------------------3-3-3-3-3-3----|

In the land of a thousand hills

3:11
   F     Dm
e|-----------1-------------------------|
B|-----------3-------------------------|
G|-----2---2---------------------------|
D|-----3-0-----------------------------|
A|---3---------------------------------|
E|-1-----------------------------------|

For one hundred days, you could never see the sky

3:16
     Am                 G
e|---0-0-0-0-0-0--------3-3-3-3-3-3----|
B|---1-1-1-1-1-1--------3-3-3-3-3-3----|
G|---2-2-2-2-2-2--------0-0-0-0-0-0----|
D|---2-2-2-2-2-2--------0-0-0-0-0-0----|
A|---0-0-0-0-0-0--------2-2-2-2-2-2----|
E|----------------------3-3-3-3-3-3----|

In the land of a thousand hills

3:20
   F          Dm        Am
e|-1-1-1------1-1-1-----0-0-0-0-0-0----|
B|-1-1-1------3-3-3-----1-1-1-1-1-1----|
G|-2-2-2------2-2-2-----2-2-2-2-2-2----|
D|-3-3-3------0-0-0-----2-2-2-2-2-2----|
A|-3-3-3------0-0-0-----0-0-0-0-0-0----|
E|-1-1-1-------------------------------|

In the land of a thousand hills

3:24
   F          Dm        Am
e|-1-1-1------1-1-1-----0-0-0-0--------|
B|-1-1-1------3-3-3-----1-1-1-1--------|
G|-2-2-2------2-2-2-----2-2-2-2--------|
D|-3-3-3------0-0-0-----2-2-2-2--------|
A|-3-3-3------0-0-0-----0-0-0-0--------|
E|-1-1-1-------------------------------|
Tap to rate this tab
 
# A B C D E F G H I J K L M N O P Q R S T U V W X Y Z