Song name
# A B C D E F G H I J K L M N O P Q R S T U V W X Y Z

Misc Unsigned Bands - Spare Change For Neema - A Picture Full Of People You Dont Know tab

Intro_
e)-------------------------------------------|
b)-------------------------------------------|
g)-------------------------------------------|
d)--7777---5555---3333---5555----------------|
a)--7777---5555---3333---5555----------------|
d)--7777---5555---3333---5555----------------|

Verse 1_
(Guitar 1)
e)------------------------------------------------------------------------------|
b)------------------------------------------------------------------------------|
g)------------------------------------------------------------------------------|
d)--777777777---555555555---333333333---555555555-------------------------------|
a)--777777777---555555555---333333333---555555555-------------------------------|
d)--777777777---555555555---333333333---555555555-------------------------------|

(Guitar 2)
e)-----------------------------------------------------------------------------|
b)-----------9-------------------7-----------------5-----------------7---------|
g)---------------9------------------7-----------------5-----------------7------|
d)--7-----------------5-----------------3-----------------5--------------------|
a)-----------------------------------------------------------------------------|
d)-----------------------------------------------------------------------------|

Chorus_
e)--------------------------------------------------------------------------|
b)--------------------------------------------------------------------------|
g)--------------------------------------------------------------------------|
d)--777777---10-10-10-10-10-10-10---333333---555555-------------------------|
a)--777777---10-10-10-10-10-10-10---333333---555555-------------------------|
d)--777777---10-10-10-10-10-10-10---333333---555555-------------------------|

Verse 2_
e)-----------------------------|
b)-----------------------------|
g)-----------------------------|
d)--77---77---33---55----------|
a)--77---77---33---55----------|
d)--77---77---33---55----------|

BREAKDOWN_______!_!_!____
e)-----------------------------------------------------10---|
b)-----------------------------------------------------10---|
g)------------------------------------------------------7---|
d)-----------------------3/5--------------------------------|
a)--000--0000000---------000--0000000-----------------------|
d)--000--0000000---------000--0000000-----------------------|
       XXX--XXXXXXX           XXX--XXXXXXX------------------|
Tap to rate this tab
 
# A B C D E F G H I J K L M N O P Q R S T U V W X Y Z