Song name
# A B C D E F G H I J K L M N O P Q R S T U V W X Y Z

Misc Unsigned Bands - Pickles And Kool-aid - Got To Love That Juicy Frank tab

Intro
-----------------------------------------------------------------|
-----------------------------------------------------------------|
-----------------------------------------------------------------|
-----------------------------------------------------------------|  x3 play
-----------------------------------------------------------------|      3x
---------0-------5--6------0--6--7------7--6---------------------|     in all


-----------------------------------------------------------------|
-----------------------------------------------------------------|
-----------------------------------------------------------------|
-----------------------------------------------------------------|  x4  play
-----------------------------------------------------------------|       4x
---0-0-0-0-0-6-7-----------0-0-0-0-8-7-6-------------------------|     in all


-----------------------------------------------------------------|
-----------------------------------------------------------------|
-----------------------------------------------------------------|
-----------------------------------------------------------------|  x2  play
-----------------------------------------------------------------|       2x
-----0-0-6-0-0-7-0-0-6-0-0-7-0-8---0-0-6-0-0-7-0-0-6-0-0-7-0-5---|     in all


play this on main melody through like the whole song!
-----------------------------------------------------------------|
-----------------------------------------------------------------|
-----------------------------------------------------------------|
-----------------------------------------------------------------|
-----------------------------------------------------------------|
------------7-7-7-7-7--------------------------------------------|


Play this on chorus!
-----------------------------------------------------------------|
-----------------------------------------------------------------|
-----------------------------------------------------------------|
-----------------------------------------------------------------|
-----------------------------------------------------------------|
-----------6-7-----7-6-----7-7-7-7-7-------7-7-7-7-7-------------|


End on this!
-----------------------------------------------------------------|
-----------------------------------------------------------------|
-----------------------------------------------------------------|
-----------------------------------------------------------------|
---9-9-9-9-9----12----7----9-------9*----------------------------|
---7-7-7-7-7----10----5----7-------7*----------------------------|
   If you guys wanna hear the song the go to
      www.myspace.com/picklesandkoolaid
Tap to rate this tab
# A B C D E F G H I J K L M N O P Q R S T U V W X Y Z