Song name
# A B C D E F G H I J K L M N O P Q R S T U V W X Y Z

Misc Wwf - Dx Theme tab

D Generation X

Intro/Verse

E------------------------------------------------------------|
B------------------------------------------------------------|
G------------------------------------------------------------|   X 3
D------------------------------------------------------------|
A-----------5---------55---7777-----------5---------332233---|
E-----000---------0-0-----------------000-------0-0----------|

Chorus

E------------------------------------------------------------|
B------------------------------------------------------------|
G------------------------------------------------------------|   X 2
D------------------------------------------------------------|
A--------7-5-7-------2-3-------------7-5-7-----------2-3-----|
E---0---------------------2-3-----0----------------------2---|

Riff

E-------------------------------------------------------------|
B-------------------------------------------------------------|
G-------------------------------------------------------------|    X 1
D-------------------------------------------------------------|
A-------------------------------------------------------------|
E------0-0----------------0-0-------------0-0----------0-0----|

Intro/Verse

E------------------------------------------------------------|
B------------------------------------------------------------|
G------------------------------------------------------------|   X 3
D------------------------------------------------------------|
A-----------5---------55---7777-----------5---------332233---|
E-----000---------0-0-----------------000-------0-0----------|

Chorus

E------------------------------------------------------------|
B------------------------------------------------------------|
G------------------------------------------------------------|   X 2
D------------------------------------------------------------|
A--------7-5-7-------2-3-------------7-5-7-----------2-3-----|
E---0---------------------2-3-----0----------------------2---|

Riff

E-------------------------------------------------------------|
B-------------------------------------------------------------|
G-------------------------------------------------------------|    X 1
D-------------------------------------------------------------|
A-------------------------------------------------------------|
E------0-0----------------0-0-------------0-0----------0-0----|

Intro/Verse

E------------------------------------------------------------|
B------------------------------------------------------------|
G------------------------------------------------------------|   X 3
D------------------------------------------------------------|
A-----------5---------55---7777-----------5---------332233---|
E-----000---------0-0-----------------000-------0-0----------|

Chorus

E------------------------------------------------------------|
B------------------------------------------------------------|
G------------------------------------------------------------|   X 2
D------------------------------------------------------------|
A--------7-5-7-------2-3-------------7-5-7-----------2-3-----|
E---0---------------------2-3-----0----------------------2---|

Riff

E-------------------------------------------------------------|
B-------------------------------------------------------------|
G-------------------------------------------------------------|    X 1
D-------------------------------------------------------------|
A-------------------------------------------------------------|
E------0-0----------------0-0-------------0-0----------0-0----|

Intro/Verse

E------------------------------------------------------------|
B------------------------------------------------------------|
G------------------------------------------------------------|   X 3
D------------------------------------------------------------|
A-----------5---------55---7777-----------5---------332233---|
E-----000---------0-0-----------------000-------0-0----------|

Chorus

E------------------------------------------------------------|
B------------------------------------------------------------|
G------------------------------------------------------------|   X 2
D------------------------------------------------------------|
A--------7-5-7-------2-3-------------7-5-7-----------2-3-----|
E---0---------------------2-3-----0----------------------2---|
Tap to rate this tab
 
# A B C D E F G H I J K L M N O P Q R S T U V W X Y Z