Song name
# A B C D E F G H I J K L M N O P Q R S T U V W X Y Z

Misc - Super Mario Theme tab

-------------------------------------------------------------------------------
			   Super Mario Theme
-------------------------------------------------------------------------------
Tabbed by:Spoonylove90
Email:spoony_love90@yahoo.com

Tuning:EADGBE

                                            play this part twice  
e|---------------------------/-----------------------------------5--------------|
B|--5-5-5------5--8----------/----------------------------5--8-----6-8-5--------|
G|---------5-----------------/---5-----------4---------5------------------5-7-4-|
D|-------------------5-------/-----5-----7------8--7----------------------------|
A|---------------------------/-------7------------------------------------------|
E|---------------------------/--------------------------------------------------|
                                 this part twice as well
e|---------------------------------------8-8-8----------------------------------------|
B|-8-7-6-5-5-----------------8-7-6-5-5--------------8-7-6-5-5-------------------------|
G|-----------------5---5h7----------------------------------------5---5h7--8-7-5~-----|
D|------------5h7----7--------------------------5------------5h7----7-----------------|
A|------------------------------------------------------------------------------------|
E|------------------------------------------------------------------------------------|

e|--------------------------------------------------------------------------------|
B|--------------5--------------------5------------------5----------5-5-5----5--8--|
G|--5-5-5-5/7-----5-------5-5-5-5/7----------5-5-5-5/7----5--------------5--------|
D|------------------7-5-------------------------------------7-5-----------------5-|
A|--------------------------------------------------------------------------------|
E|--------------------------------------------------------------------------------|

e|--------------------------------------------------------------------------------------------|
B|---5----------6-6------8/10-10-10-8-----------------5---------6-6-------6-6-6-5--5----------|
G|-----5------------------------------10-9--------------5-------------------------7---5-------|
D|-------6--6/7-----7----------------------10-7-----------6-6/7-----7---7---------------------|
A|----------------------------------------------10----------------------------------------7---|
E|------------------------------------------------------------------------------------------8-|
Please rate this tab!
PM or email me with any questions.


| /  slide up
| \  slide down
| h  hammer-on
| p  pull-off
| ~  vibrato
| +  harmonic
| x  Mute note
===============================================================================
Tap to rate this tab
 
# A B C D E F G H I J K L M N O P Q R S T U V W X Y Z