Song name
# A B C D E F G H I J K L M N O P Q R S T U V W X Y Z

Mississippi Fred Mcdowell - Freds Worried Life Blues tab

Blues legend and wicked song. This pattern is repeated all the way through. I play this 
standard although I'm sure you could have a play in some open tunings.

|--------------------------------------------------------------------------|
|--------------------------------------------------------------------------|
|-------------3v--5-5p0----------------------------------------------------|
|--3p0-5-5---------------3-3/5v-3p0-3-4-5v--------5v---3--3p0--------------|
|--------------------------------------------------------------------------|
|--------------------------------------------6p3-----------------6-3v------|


|------------------------------------------8--6v--------------|
|-------------------------------------------------------------|
|------------------------------------------------------5--3v--|
|---3-3h5-----3v---3-3h5----------------5-----------5---------|
|-------------------------------------------------------------|
|---------6p3------------6--3h3~------------------------------|


You made me weep
And you made me moan
Way you cause me to leave my
My happy home

But someday
Ya ain't gonna worry my life any mo'


Ya told ev'rybody
In your neighborhood
What a dirty mistreater
Didn't mean ya no good

But someday
Ya ain't gonna worry my life any mo'


When I had money
I had plenty-a friends
I ain't got no money, baby
Honey, even no friend

But someday
Ya ain't gonna worry my life any more


If I had money
Like Henry Ford
I'll have me a woman on
On ev'ry road

But bye-bye
Ya ain't gonna worry my life any mo'
Tap to rate this tab
# A B C D E F G H I J K L M N O P Q R S T U V W X Y Z