Song name
# A B C D E F G H I J K L M N O P Q R S T U V W X Y Z

Modern Baseball - Fine Great tab

First song off the new album. It's in Eb standard, there's no other way to play it really.

Intro: "I hate worrying about the future..."
t:
E|--0--0--0--0--|
B|--0--0--2--1--|
G|--1--2--2--2--|
D|--2--2--2--2--|
A|--2--0--0--0--|
E|--0-----------|

Part after intro Guitar 1
t:
E|------------------|
B|------------------|
G|------------------|
D|--2--9--7--11--9--| x2
A|--2--9--7--11--9--|
E|--0--7--5--9---7--|

Part after intro Guitar 2
E|-----------------------------------------|
B|-----------------------------------------|
G|--9--9-9--8--8-8/9--9--6--6-6--9--8------|
D|-----------------------------------------|  x2
A|--7--7-7--6--6-6/7--7--4--4-4--7--6------|
E|-----------------------------------------|


Verse: "I'm so tired or maybe just bored..."
E|--0--0--0--0--|
B|--0--0--2--1--|
G|--1--2--2--2--|
D|--2--2--2--2--|
A|--2--0--0--0--|
E|--0-----------|


Chorus?  "i'm guilty as charged..."
E|------------------|
B|------------------|
G|------------------|
D|--2--9--7--11--9--|
A|--2--9--7--11--9--|
E|--0--7--5--9---7--|

"I hate worrying about the future..."
t:
E|--0--0--0--0--|
B|--0--0--2--1--|
G|--1--2--2--2--|
D|--2--2--2--2--| x4   then it's over
A|--2--0--0--0--|
E|--0-----------|
Tap to rate this tab
# A B C D E F G H I J K L M N O P Q R S T U V W X Y Z