Song name
# A B C D E F G H I J K L M N O P Q R S T U V W X Y Z

Modest Mouse - King Rat tab

Song:King Rat
Artist: Modest Mouse
Tabbed by: trailertrash7116

questions or comments email me at trailertrash7116@yahoo.com


e----6-3----3----6-3----3----6-3--------3-------6-3-----3------|
b-----------x-----------x---------------x---------------x------|
g--5-----5--5--------5--5------------5--5------------5--5--3---|
d--------------------------------------------------------------|
a--------------------------------------------------------------|
e--------------------------------------------------------------|

part a

e--------------3----------------3--|
b---------4--------6---4--------x--|
g---5-------5------------5------5--|
d----------------------------------|
a----------------------------------|
e----------------------------------|

e----------------3-------------------------|
b----------4-------6---4---------4---------|
g---5--------5------------5--3------5------|
d------------------------------------------|
a------------------------------------------|
e------------------------------------------|

e--------------3-------------| end here on second repeat
b---------4--------6---4-----|
g---5-------5------------5---|
d----------------------------|
a----------------------------|
e----------------------------|

e---3-----6--3----3-----6---3----3-------6---3----3-------6---3-----3----|
b---x-------------x--------------x----------------x-----------------x----|
g---5-----------5-5------------5-5--------------5-5---------------5-5--3-|
d------------------------------------------------------------------------|
a------------------------------------------------------------------------|
e------------------------------------------------------------------------|

repeat part a twice
Tap to rate this tab
# A B C D E F G H I J K L M N O P Q R S T U V W X Y Z