Guitaretab - guitar tabs
Song name
# A B C D E F G H I J K L M N O P Q R S T U V W X Y Z

Modest Mouse - Baby Blue Sedan tab

i took this off of the album tab so you dont have to print out the whole album and 
word completely mobbs the tab

-----------------------------Baby Blue Sedan--------------------------------

(Main Riff/Verse)
e|-------------------------------------------------------------------------|
B|-------------------------------------------------------------------------|
G|-0-------0-------0-------0-----------------------------------------------|
D|---2p0-----2p0-----2p0-----2p0----0-------0-------0--------0-------------|
A|-------3-------3-------3-------3----2p0-----2p0-----2p0------2p0---------|
E|----------------------------------------3-------3-------3--------3-------|
[ Tab from: http://www.guitaretab.com/m/modest-mouse/92903.html ]
(Harmonics played over verse) (syncronized with riff above)
e|---------------------------------------------------------------------|
B|---------------------------------------------------------------------|
G|-----------------7+-------------------------------7+-----------------|
D|-7+-------------------------------7+---------------------------------|
A|---------7+-------------------------------7+-------------------------|
E|---------------------------------------------------------------------|

(Chorusish part)
e|-3--3-3-3-3--3--3-3-3-3--3--3-3-3-3--3--x--x-----------------------------|
B|-3--3-3-3-3--3--3-3-3-3--3--3-3-3-3--3--x--x--1--1-1-1-1--1--1-1-1-1--1--|
G|-0--0-0-0-0--0--0-0-0-0--0--0-0-0-0--0--x--x--0--0-0-0-0--0--0-0-0-0--0--|
D|-0--0-0-0-0--0--0-0-0-0--0--0-0-0-0--0--x--x--2--2-2-2-2--2--2-2-2-2--2--|
A|-2--2-2-2-2--2--2-2-2-2--2--2-2-2-2--2--x--x--3--3-3-3-3--3--3-3-3-3--3--|
E|-3--3-3-3-3--3--3-3-3-3--3--3-3-3-3--3--x--x-----------------------------|
   |  |_|_|_|  |  |_|_|_|  |  |_|_|_|  |  |  |  |  |_|_|_|  |  |_|_|_|  |

e|------------x--x--------|
B|1-1-1-1--1--x--x--------|
G|0-0-0-0--0--x--x--------|
D|2-2-2-2--2--x--x--------|
A|3-3-3-3--3--x--x--------|
E|------------x--x--------|
  |_|_|_|  |  |  |

This tab is pretty easy if you know your chords.
Related for Baby Blue Sedan tab
Advertisement will be closed in 10 seconds