Song name
# A B C D E F G H I J K L M N O P Q R S T U V W X Y Z

Mogwai - How To Be A Werewolf tab

Author: Nasher

Intro
------------------------------------------------------------
h = hammer-on
p = pull-off
/ = slide

e|-5---h7~---------5---h7~--------|
B|-5~--------------5~-------------|
G|--------------------------------|
D|--------------------------------|
A|--------------------------------|
E|--------------------------------|

e|-5---p2~---------5---p2~--------|
B|-5~--------------5~-------------|
G|--------------------------------|
D|--------------------------------|
A|--------------------------------|
E|--------------------------------|


Main riff
------------------------------------------------------------

Play this for a few minutes on clean, then add some distortion towards the end.


e|---------------------------------|
B|---------------------------------|
G|---------------------------------|
D|-7--77--777----7--77--/999-------|
A|-0--00--000----0--00--/000-------|
E|---------------------------------|

e|--------------------------------------|
B|--------------------------------------|
G|--------------------------------------|
D|-11-1111--111111--11-1111--/999-------| (play eleventh fret, not first)
A|-0--0-0---0-0-0---0--0-0---/000-------|
E|--------------------------------------|

e|---------------------------------|
B|---------------------------------|
G|---------------------------------|
D|-7--77--777----7--77--/444-------|
A|-0--00--000----0--00--/000-------|
E|---------------------------------|

e|---------------------------------|
B|---------------------------------|
G|---------------------------------|
D|-7--77--777----7--77--777--------|
A|-0--00--000----0--00--000--------|
E|---------------------------------|



Solo
------------------------------------------------------------
(just play around with the Amajor scale)
Tap to rate this tab
 
# A B C D E F G H I J K L M N O P Q R S T U V W X Y Z