Song name
# A B C D E F G H I J K L M N O P Q R S T U V W X Y Z

Monkey Majik - Watching You tab

         Watching you
         By:monkey majik
         email for comment silva_boklo@yahoo.com


this is a temporary tab not an accurate tab  so just enjoy it....:) XD
ill post it after i done it 100% XD


Intro
e---------------------------------------------------------------|
B--7-7-x-9-9---9-----3/55-5x-----10------9----------------------|
G---------------------------------------------------------------|
D---------------------------------------------------------------|
A--5-----7---7---0---3/55------0--9---0--7----------------------|
E---------------------------------------------------------------|


e-----------------------------------------------------------|
B--7-7x--9--9---9------3/55x-55----10-----------------------|
G-----------------------------------------------------------|
D-----------------------------------------------------------|
A--5-----7----7----0---3/55--55-----9-----------------------|
E-----------------------------------------------------------|


verse
e------------------------------------------------|
B--7-7-x-9-9---9-----3/55-5x-----10------9-------|
G----------------------------------------------3-|times
D------------------------------------------------|
A--5-----7---7---0---3/55------0--9---0--7-------|
E------------------------------------------------|

Then

e-------------------------------------------------|
B--7-7x--9--9---9------3/55x-55----10-------------|
G-------------------------------------------------|
D-------------------------------------------------|
A--5-----7----7----0---3/55--55-----9-------------|
E-------------------------------------------------|

brigde:


e----------------------------------------|
B-7-7x--4---4----4---3-3x---2-2--2-------|
G----------------------------------------|
D--------------------------------------4-| TIMES
A-5-----3------3-----2------0---0--------|
E----------------------------------------|


THEN
e-----------------------------------------------|
B--3-3x---2--2----------------------------------|
G-----------------------------------------------|
D-----------------------------------------------|
A--2------0--0----------------------------------|
E-----------------------------------------------|

chorus
e------------------------------------------------|
B--7-7-x-9-9---9-----3/55-5x-----10------9-------|
G----------------------------------------------3-|times
D------------------------------------------------|
A--5-----7---7---0---3/55------0--9---0--7-------|
E------------------------------------------------|

then
e--------------------------------------------------|
B--7-7x--7--7--7----------3-3x---3-------------x---|
G--------------------------------------------------|
D--------------------------------------------------|
A--5-----5--5--5----------2-----2------------------|
E--------------------------------------------------|

back to verse
then use the verse tab
Tap to rate this tab
 
# A B C D E F G H I J K L M N O P Q R S T U V W X Y Z