Song name
# A B C D E F G H I J K L M N O P Q R S T U V W X Y Z

Monkey Majik - Turn tab

This is my first tab so i hope you like it. i got back from japan listening to 
this music and it is great. thanks to minato
this song is light and played with an accoustic guitar.

Monkey Majik
Turn

Accoustic guitar
Kappo on 4 fret

Intro
e|----------------------| X4
b|----1-3---3---5-----1-|
g|----0-0---0---0-----0-|
d|--2-------------------|
a|0-------2---3---------|
E|----------------0-1---|

Verse
e|----------------------| X9
b|----1-3---3---5-----1-|
g|----0-0---0---0-----0-|
d|--2-------------------|
a|0-------2---3---------|
E|----------------0-1---|
waking up...

(last fraze of verse}
e|------------------------|
b|----1-3---3---5-----1-1-|
g|----0-0---0---0-----0-0-|
d|--2---------------------|
a|0-------2---3-----------|
E|----------------0-1-----|

Chours
e|0-0-0-0--3-3-3-3--0-0-0-0-0-0-0-0---1-1-1-1--0-0-0-0--1-1-1-1-1-1-1-1-| X2
b|1-1-1-1--0-0-0-0--1-1-1-1-1-1-1-1---1-1-1-1--1-1-1-1--0-0-0-0-0-0-0-0-|
g|0-0-0-0--0-0-0-0--2-2-2-2-2-2-2-2---2-2-2-2--0-0-0-0--0-0-0-0-0-0-0-0-|
d|2-2-2-2--0-0-0-0--2-2-2-2-2-2-2-2---3-3-3-3--2-2-2-2--0-0-0-0-0-0-0-0-|
a|3-3-0-3--2-2-2-2--0-0-0-0-0-0-0-0---3-3-3-3--3-3-3-3--2-2-2-2-2-2-2-2-|
E|3-3-3-3--3-3-3-3-----------------------------3-3-3-3--3-3-3-3-3-3-3-3-|
oh where still turning aroung...

Verse
e|----------------------| X6
b|----1-3---3---5-----1-|
g|----0-0---0---0-----0-|
d|--2-------------------|
a|0-------2---3---------|
E|----------------0-1---|

e|0-0-0-0--3-3-3-3--0-0-0-0-0-0-0-0---1-1-1-1--0-0-0-0--1-1-1-1-1-1-1-1-| X2
b|1-1-1-1--0-0-0-0--1-1-1-1-1-1-1-1---1-1-1-1--1-1-1-1--0-0-0-0-0-0-0-0-|
g|0-0-0-0--0-0-0-0--2-2-2-2-2-2-2-2---2-2-2-2--0-0-0-0--0-0-0-0-0-0-0-0-|
d|2-2-2-2--0-0-0-0--2-2-2-2-2-2-2-2---3-3-3-3--2-2-2-2--0-0-0-0-0-0-0-0-|
a|3-3-0-3--2-2-2-2--0-0-0-0-0-0-0-0---3-3-3-3--3-3-3-3--2-2-2-2-2-2-2-2-|
E|3-3-3-3--3-3-3-3-----------------------------3-3-3-3--3-3-3-3-3-3-3-3-|

Chours
e|0-0-0-0--3-3-3-3--0-0-0-0-0-0-0-0---1-1-1-1--0-0-0-0--1-1-1-1-1-1-1-1-| X2
b|1-1-1-1--0-0-0-0--1-1-1-1-1-1-1-1---1-1-1-1--1-1-1-1--0-0-0-0-0-0-0-0-|
g|0-0-0-0--0-0-0-0--2-2-2-2-2-2-2-2---2-2-2-2--0-0-0-0--0-0-0-0-0-0-0-0-|
d|2-2-2-2--0-0-0-0--2-2-2-2-2-2-2-2---3-3-3-3--2-2-2-2--0-0-0-0-0-0-0-0-|
a|3-3-0-3--2-2-2-2--0-0-0-0-0-0-0-0---3-3-3-3--3-3-3-3--2-2-2-2-2-2-2-2-|
E|3-3-3-3--3-3-3-3-----------------------------3-3-3-3--3-3-3-3-3-3-3-3-|

Bridge
|1-1-1-1---1-1-1-1---1-1-1-1---1-1-1-1---0-0-0-0-0-0-0-0-0-0-0-0-0-0-0-0| X2
|1-1-1-1---1-1-1-1---1-1-1-1---1-1-1-1---1-1-1-1-1-1-1-1-1-1-1-1-1-1-1-1|
|2-2-2-2---2-2-2-2---2-2-2-2---2-2-2-2---0-0-0-0-0-0-0-0-0-0-0-0-0-0-0-0|
|3-3-3-3---3-3-3-3---3-3-3-3---3-3-3-3---2-2-2-2-2-2-2-2-2-2-2-2-2-2-2-2|
|3-3-3-3---3-3-3-3---3-3-3-3---3-3-3-3---3-3-3-3-3-3-3-3-3-3-3-3-3-3-3-3|
|----------------------------------------3-3-3-3-3-3-3-3-3-3-3-3-3-3-3-3|

e|1-1-1-1-1-1-1-1-1-1-1-1-1-1-1-1-|
b|1-1-1-1-1-1-1-1-1-1-1-1-1-1-1-1-|
g|2-2-2-2-2-2-2-2-2-2-2-2-2-2-2-2-|
d|3-3-3-3-3-3-3-3-3-3-3-3-3-3-3-3-|
a|3-3-3-3-3-3-3-3-3-3-3-3-3-3-3-3-|
E|1-1-1-1-1-1-1-1-1-1-1-1-1-1-1-1-|

Chours
e|0-0-0-0--3-3-3-3--0-0-0-0-0-0-0-0---1-1-1-1--0-0-0-0--1-1-1-1-1-1-1-1-| X2
b|1-1-1-1--0-0-0-0--1-1-1-1-1-1-1-1---1-1-1-1--1-1-1-1--0-0-0-0-0-0-0-0-|
g|0-0-0-0--0-0-0-0--2-2-2-2-2-2-2-2---2-2-2-2--0-0-0-0--0-0-0-0-0-0-0-0-|
d|2-2-2-2--0-0-0-0--2-2-2-2-2-2-2-2---3-3-3-3--2-2-2-2--0-0-0-0-0-0-0-0-|
a|3-3-0-3--2-2-2-2--0-0-0-0-0-0-0-0---3-3-3-3--3-3-3-3--2-2-2-2-2-2-2-2-|
E|3-3-3-3--3-3-3-3-----------------------------3-3-3-3--3-3-3-3-3-3-3-3-|

Outro
e|0-0-0-0--3-3-3-3--0-0-0-0-0-0-0-0---1-1-1-1--0-0-0-0--1-1-1-1-1-1-1-1-|
b|1-1-1-1--0-0-0-0--1-1-1-1-1-1-1-1---1-1-1-1--1-1-1-1--0-0-0-0-0-0-0-0-|
g|0-0-0-0--0-0-0-0--2-2-2-2-2-2-2-2---2-2-2-2--0-0-0-0--0-0-0-0-0-0-0-0-|
d|2-2-2-2--0-0-0-0--2-2-2-2-2-2-2-2---3-3-3-3--2-2-2-2--0-0-0-0-0-0-0-0-|
a|3-3-0-3--2-2-2-2--0-0-0-0-0-0-0-0---3-3-3-3--3-3-3-3--2-2-2-2-2-2-2-2-|
E|3-3-3-3--3-3-3-3-----------------------------3-3-3-3--3-3-3-3-3-3-3-3-|

e|0-0-0-0--3-3-3-3--0-0-0-0-0-0-0-0---1-1-1-1--0-0-0-0--1-1-1-1-1-| 
b|1-1-1-1--0-0-0-0--1-1-1-1-1-1-1-1---1-1-1-1--1-1-1-1--0-0-0-0-0-|
g|0-0-0-0--0-0-0-0--2-2-2-2-2-2-2-2---2-2-2-2--0-0-0-0--0-0-0-0-0-|
d|2-2-2-2--0-0-0-0--2-2-2-2-2-2-2-2---3-3-3-3--2-2-2-2--0-0-0-0-0-|
a|3-3-0-3--2-2-2-2--0-0-0-0-0-0-0-0---3-3-3-3--3-3-3-3--2-2-2-2-2-|
E|3-3-3-3--3-3-3-3-----------------------------3-3-3-3--3-3-3-3-3-|
(the last note is sharp)

Thats it. To get the timings please listen to the song.
If you have any comments, questions, queries or corrections please email me at im-
very-cool@hotmail.com. HAVE FUN!
Tap to rate this tab
 
# A B C D E F G H I J K L M N O P Q R S T U V W X Y Z