Song name
# A B C D E F G H I J K L M N O P Q R S T U V W X Y Z

Monkey Majik - Bicycle tab

-------------------------------------------------------------------------------
			     BICYCLE - Monkey Majik
-------------------------------------------------------------------------------
Tabbed by: GuetaMinute
Email: guetaminute@hotmail.com

Tuning: Standard

Intro/Chorus Riff:
e|----------------------------------------|
B|----------------------------------------|
G|-------------------------------------0--|
D|--------0-3p2-0-0---0--3/5\3--0--3b-----|
A|--0--3b---------------------------------|
E|----------------------------------------|


The main verse and chorus chords play throughout the whole song. They're D, C, G, and A#
respectively (just play them as power chords, but when playing G, play the G string
(lol) on the 4th fret as well, that's how Maynard plays it.

D  C  G  A#

Fill 1:
e|----1010-10---------1010-10------------------------------------------------------------|
B|----8-8--8----------8-8--8-------------------------------------------------------------|
G|---------------------------------------------------------------------------------------|
D|---------------------------------------------------------------------------------------|
A|---------------------------------------------------------------------------------------|
E|---------------------------------------------------------------------------------------|

Fill 2/Pre-Chorus:
e|-----------------------------|
B|----6--------------8--10--8--|
G|----7--------------9--10--9--|
D|----7-repeatedly---9--10--9--|
A|-----------------------------|
E|-----------------------------|


All of those chords strummed repeatedly along with the song (that's how he does it, he 
meaning Blaise)

Solo:
e|----10--10------------------------------10-----------------555555--|
B|-/10--10---10---8-8-8--6--8br6----6-------10-\-8--6--8br6--666666--|
G|--------------------------------7---7----------------------777777--|
D|-------------------------------------------------------------------|
A|-------------------------------------------------------------------|
E|-------------------------------------------------------------------|

e|--7777777----8-8-8-8-8-8----77777-------------|
B|--8888888----101010101010---88888---10-11-10--|
G|--9999999----101010101010---99999-------------|
D|----------------------------------------------|
A|----------------------------------------------|
E|----------------------------------------------|


************************************

| /   slide up
| \   slide down
| h   hammer-on
| p   pull-off
| ~   vibrato
| +   harmonic
| x   Mute note
| b   Bend
| pb  Pre-bend
| br  Bend release
| pbr Pre-bend release
| brb Bend release bend

************************************
Tap to rate this tab
 
# A B C D E F G H I J K L M N O P Q R S T U V W X Y Z