Song name
# A B C D E F G H I J K L M N O P Q R S T U V W X Y Z

Monkey Majik - Wonderland tab

-------------------------------------------------------------------------------
                             WONDERLAND - Monkey Majik
-------------------------------------------------------------------------------


Tuning: Standard (capo 2nd fret)

Intro (without capo)
e|--------------------------------------------------------------------------|
B|--------------------------------------------------------------------------|
G|------------9----------------------11p9h11--9-----------------------------|
D|-----11--------11-------9----9--------------------------------------------|
A|---12---12--------12p11---11----------------------------------------------|
E|--------------------------------------------------------------------------|



e|--9-10--\-12---10-9-------------------------------------------------------|
B|---------------------12--10----10--12-\-14--12--10------------------------|
G|-----------------------------------------------------11--9----------------|
D|--------------------------------------------------------------------------|
A|--------------------------------------------------------------------------|
E|--------------------------------------------------------------------------|

e|--------------------------------------------------------------------------|
B|--12\14--12-12-12---10--12\14---10----------------------------------------|
G|------------------------------------11----9-------------------------------|
D|---------------------------------------------12--11-----------------------|
A|--------------------------------------------------------------------------|
E|--------------------------------------------------------------------------|


Main chords/verse/chorus (capo 2nd fret)
e|----3---------2--------3--------0-----------------------------------------|
B|----3---------3--------3--------1-----------------------------------------|
G|----0---------2--------0--------0-----------------------------------------|
D|----0---------0--------2--------2-----------------------------------------|
A|----2------------------2--------3-----------------------------------------|
E|----3------------------0--------------------------------------------------|

a second guitar does the same in a lower spot on the neck, this is probably only for the 
studio version, and it's without capo
e|-------------12-------9------10-------------------------------------------|
B|----14-------12-------10-----10-------------------------------------------|
G|----14-------13-------11-----11-------------------------------------------|
D|----14-------14-------11-----12-------------------------------------------|
A|----12-------14-------9------12-------------------------------------------|
E|-------------12--------------10-------------------------------------------|

Pre-chorus/Caterpillars everywhere.. (capo 2nd fret again)
e|----0-----------2---------------------------------------------------------|
B|----1-----------3---------------------------------------------------------|
G|----0-----------2---------------------------------------------------------|
D|----2-----------4---------------------------------------------------------|
A|----0-----------2---------------------------------------------------------|
E|--------------------------------------------------------------------------|

X 3

Now just close your eyes..
e|-----0----------2--------0------------------------------------------------|
B|-----0----------3--------1------------------------------------------------|
G|-----0----------2--------0------------------------------------------------|
D|-----2----------0--------2------------------------------------------------|
A|-----2-------------------3------------------------------------------------|
E|-----0--------------------------------------------------------------------|


then chorus kicks in which is the same chords for the verse. simple as that

************************************

| /   slide up
| \   slide down
| h   hammer-on
| p   pull-off
| ~   vibrato
| +   harmonic
| x   Mute note
| b   Bend
| pb  Pre-bend
| br  Bend release
| pbr Pre-bend release
| brb Bend release bend

************************************
Tap to rate this tab
# A B C D E F G H I J K L M N O P Q R S T U V W X Y Z