Song name
# A B C D E F G H I J K L M N O P Q R S T U V W X Y Z

Motorhead - Brotherhood Of Man tab

Brotherhood of man - Motörhead
Tabbed by Conny Lundquist
Any questions contact : connylundquist@live.se

Tune :
d#
A#
F#
C#
G#
D#

---------------|----------------|
---------------|----------------|
---------------|----------------|
-9-9-9---9---9-|-9-9-9----5-7-3-|
-7-7-7---7---7-|-7-7-7----5-7-3-|
--0-0-0-0-0-0--|--0-0-0-0-3-5-1-|

------------------------------------|---------------------------------------|
------------------------------------|---------------------------------------|
------------------------------------|---------------------------------------|
-7-7-7-9-9-9-10-10-10-5-5-5-5-5-5-5-|-3-3-3-5-5-5-2-2-2-2-2-2-2-2-2-2-------|
-7-7-7-9-9-9-10-10-10-5-5-5-5-5-5-5-|-3-3-3-5-5-5-2-2-2-2-2-2-2-2-2-2-------|
-5-5-5-7-7-7-8--8--8--3-3-3-3-3-3-3-|-1-1-1-3-3-3-0-0-0-0-0-0-0-0-0-0-------|

(the same time as the chords end)
------------|
------------|
------------|
-10-9-7-5---|
------------|
------------|

---------------------------------------|
---------------------------------------|
---------------------------------------|
-5-----7-----8-----9-----7/9-9---------|
-5-2-2-7-2-2-8-2-2-9-2-2-5/7-7---------|
-3-0-0-5-0-0-6-0-0-7-0-0---------------|

hope everyone is happy with this, Good luck!
Tap to rate this tab
 
# A B C D E F G H I J K L M N O P Q R S T U V W X Y Z