Song name
# A B C D E F G H I J K L M N O P Q R S T U V W X Y Z

Motorhead - Im Your Man tab

e|---------------------3--3-----|------------------------------------------|
B|-10/12-12----6/8-8---5----5---|-10/12-12----6/8-8------------------------|
G|-10/12----12-6/8---x-5------5-|-10/12----12-6/8---x--9-------------------|
D|-10/12-------6/8-----5--------|-10/12-------6/8-----10-------------------|
A|--8/10-------4/6-----3--------|--8/10-------4/6-----10--10-x-10\8\5/10-x-|
E|------------------------------|---------------------10--10-x-10\8\5/10-x-|

e|------------------------------|
B|-10/12-12----6/8-8---5---5----|
G|-10/12----12-6/8---x-5---5----|
D|-10/12-------6/8-----5---5----|
A|--8/10-------4/6-----3---3----|
E|------------------------------|
Riff 1
e|------------------------------------------------|
B|------------------------------------------------|
G|------------------------------------------------|
D|-----------------------------------------0-<3>~-|
A|-0-0-3p0-----0-0-3p0-----0-0-3p0----------------|
E|-0-0-----3p0-0-0-----3p0-0-0-----3p0-3p0--------|
   . .         . .         . .
e|------------------------------------------------|
B|------------------------------------------------|
G|------------------------------------------------|
D|------------------------------------------------|
A|-0-0-3p0-----0-0-3p0-----0-0-3p0-----3p0--------|
E|-0-0-----3p0-0-0-----3p0-0-0-----3p0-----3------|
   . .         . .         . .
Verse
e|------------------------------------------------|
B|------------------------------------------------|
G|------------------------------------------------|
D|-----------------------------------------0-<3>~-|
A|-0-0-3p0-----0-0-3p0-----0-0-3p0----------------|
E|-0-0-----3p0-0-0-----3p0-0-0-----3p0-3p0--------|
   . .         . .         . .
e|------------------------------------------------|
B|------------------------------------------------|
G|------------------------------------------------|
D|------------------------------------------------|
A|-0-0-3p0-----0-0-3p0-----0-0-3p0---<3>~---------|
E|-0-0-----3p0-0-0-----3p0-0-0-----3------3-0-----|
   . .         . .         . .
Chorus
e|--------------------------------|
B|--------------------------------|
G|--------------------------------|
D|-5---3--0--5--3--0---5---3---0--|
A|-5---3--0--5--3--0---5---3---0--|
E|-5---3--0--5--3--0---5---3---0--|

Solo backing            this bit twice
e|--------------------|-----------------------------|
B|--------------------|-----------------------------|
G|--------------------|-----------------------------|
D|--2---2--2---2------|-5--3---5--3--0---5---3---0--|
A|-00-000-00-000-etc.-|-5--3---5--3--0---5---3---0--|
E|--------------------|-5--3---5--3--0---5---3---0--|
   .  ..  .  ..
 

Tap to rate this tab
# A B C D E F G H I J K L M N O P Q R S T U V W X Y Z