Song name
# A B C D E F G H I J K L M N O P Q R S T U V W X Y Z

Mudhoney - Make It Now tab

Help us improve GuitareTab! Take a short survey!
(4/4 Time) (Tuning [Low to High]: Eb Ab Db Gb Bb Eb) Intro:
 B Db              B Db              B Db              B Db
-------------------------------------------------------------|
-5-7-x-7-x-7-x-7---5-7-x-7-x-7-x-7---5-7-x-7-x-7-x-7---5-7-x-|
-5-7-x-7-x-7-x-7---5-7-x-7-x-7-x-7---5-7-x-7-x-7-x-7---5-7-x-|
-5-7-x-7-x-7-x-7---5-7-x-7-x-7-x-7---5-7-x-7-x-7-x-7---5-7-x-|
-------------------------------------------------------------|
-------------------------------------------------------------|
(Guitar 1) (Guitar 2 Plays Feedback)

-------------------------------------------------------------|
-7-x-7-x-7---------------------------------------------------|
-7-x-7-x-7---------------------------------------------------|
-7-x-7-x-7---------------------------------------------------|
-------------------------------------------------------------|
-------------------------------------------------------------|
           (Guitar 1 Tacet)
-------------------------------------------------------------|
-------------------------------------------------------------|
-------------------------------------------------------------|
-----------10-12--10-12-10-12(14)12-12p10-8-10--8-10-8-------|
-------------------------------------------------------------|
-------------------------------------------------------------|
(Guitar 2)

-------------------------------------------------------------|
-------------------------------------------------------------|
----------------------*----*---------------------------------|
-10(12)10-10p8--------8----8----8----8-10--8-10-8-10(12)10---|
---------------10--10---10---10---10-------------------------|
-------------------------------------------------------------|
(Guitar 2) (*=Slight Bend)

-------------------------------------------------------------|
------------13-13-----13-------------------------------------|
------------12-12(14)-12(14)12----10-------------------------|
-8-/12---10--------------------12----------------------------|
-------------------------------------------------------------|
-------------------------------------------------------------|
(Guitar 2)

Verse:
 B DbB  D  E F#   B DbB  D E  Db  B DbB  D  E F#   B DbB  D
-------------------------------------------------------------|
-------------------------------------------------------------|
-5-7-5--8-10-12---5-7-5--8-10-7---5-7-5--8-10-12---5-7-5--8--|
-------------------------------------------------------------|
-------------------------------------------------------------|
-------------------------------------------------------------|
(Guitar 2)
-------------------------------------------------------------|
-------------------------------------------------------------|
-5-7-5--8-10-12---5-7-5--8-10-7------------------------------|
-5-7-5--8-10-12---5-7-5--8-10-7------------------------------|
-3-5-3--6--8-10---3-5-3--6--8-5------------------------------|
-------------------------------------------------------------|
(Guitar 3) (Repeat 3 Times)

 E  Db  B     DbB  D     F G   B     DbB  D F Db     B  Db
-----------------------------------------------------10-10-8-|
--------*-----6----------6-8---------6----------6-8----------|
-10-7---7-7-7---7--7-7-7-------7-7-7---7--7-7-7--------------|
-------------------------------------------------------------|
-------------------------------------------------------------|
-------------------------------------------------------------|
(Guitar 2) (Start w/wah at *)

 B       D  F  G         B  Db   B       D  F  Db
-10-10-8-10-10-8-10-10-8-10-10-8-10-10-8-10-10-8-10-10-8-----|
-------------------------------------------------------------|
-------------------------------------------------------------|
-------------------------------------------------------------|
-------------------------------------------------------------|
-------------------------------------------------------------|
(Guitar 2)

 B  Db D           D F  G     B Db   B        D F Db
-10-10-8-----------------------------------------------------|
---------11-11-10--8----8------------------------------------|
---------------------10---10--7-7-9--10-10-9--7---7----------|
------------------------------------------------9------------|
-------------------------------------------------------------|
-------------------------------------------------------------|
(Guitar 2)


Chorus:
 Db   B    F#   B    Db
-------------------------------------------------------------|
-------------------------------------------------------------|
-7----5---------5----7-7-7-7-7-7-7---------------------------|
-7----5----5----5----7-7-7-7-7-7-7---------------------------|
-5----3----5----3----5-5-5-5-5-5-5---------------------------|
-----------3-------------------------------------------------|
(Guitar 1) (Guitar 2 Plays Same As Intro) (Guitar 3 Tacet)


Bridge:
 Db               B DbB Db
-------------------------------------------------------------|
------------------5-7-5-7--7---------------------------------|
------------------5-7-5-7--7---------------------------------|
------------------5-7-5-7--7---------------------------------|
-------------------------------------------------------------|
-------------------------------------------------------------|
(Guitar 1) (Repeat 16 Times Then Play Below)
-------------------------------------------------------------|
-------------------------------------------------------------|
-7-----------------------------------------------------------|
-------------------------------------------------------------|
-------------------------------------------------------------|
-------------------------------------------------------------|
(Guitar 2) (Guitar 3 Plays Feedback)

 B DbB Db
-------------------------------------------------------------|
-5-7-5-7-7-7-7-7-7-7-----------------------------------------|
-5-7-5-7-7-7-7-7-7-7-----------------------------------------|
-5-7-5-7-7-7-7-7-7-7-----------------------------------------|
-------------------------------------------------------------|
-------------------------------------------------------------|
(Guitar 1)


Solo:
 N.C.
-------------------------------------------------------------|
-----------15---15---15-13-15-15-13--------------------------|
-12---12----------------------------15-15-14--14-12--14-12---|
-------------------------------------------------------------|
-------------------------------------------------------------|
-------------------------------------------------------------|
(Guitar 2) (Guitar 3 Plays Noise)

-------------------------------------------------------------|
--------------------15-15-13-15-15-13-15-15-13-15-15-13-15---|
-------------------------------------------------------------|
-14-15-14-12----12-------------------------------------------|
-------------14----------------------------------------------|
-------------------------------------------------------------|
(Guitar 2)

-----------------------------------17----17----17----17------|
-15-13-15-15-13-15-15-13-15-15-13-----15----15----15----15---|
-------------------------------------------------------------|
-------------------------------------------------------------|
-------------------------------------------------------------|
-------------------------------------------------------------|
(Guitar 2)

-------------------------------------------------------------|
-15-15-13----------------------------------------------------|
----------15-15-14-12----12----------------------------------|
----------------------15----15-------------------------------|
-------------------------------------------------------------|
-------------------------------------------------------------|
(Guitar 2)


Ending:
 B Db B D  E F#
-------------------------------------------------------------|
-------------------------------------------------------------|
-5-7--5-8-10-12------------------10h12-10--------------------|
------------------------------------------12-10-12-----------|
-------------------------------------------------------------|
-------------------------------------------------------------|
(Guitar 2)
-------------------------------------------------------------|
-------------------------------------------------------------|
-5-7--5-8-10-12----------------------------------------------|
-5-7--5-8-10-12----------------------------------------------|
-3-5--3-6--8-10----------------------------------------------|
-------------------------------------------------------------|
(Guitar 3)
Related for Make It Now tab