Song name
# A B C D E F G H I J K L M N O P Q R S T U V W X Y Z

Mudhoney - Halloween tab

Artist:MUDHONEY
Song:Halloween
Album:SuperFuzz BigMuff

Ok so its Halloween at around 3 in the morning and i have had a tradition where i listen
songs named Halloween on Halloween which i have done for the past 3 years. I mainly
to Halloween by Mudhoney then Halloween by Dave Matthews which are both amazing songs. 
i decided to tab out the song while listening to it and this is what i got:


/-Slide
~Vibrato

Intro
e------------------------|
B------------------------|
G------------------------|
D--\5~~--3-1---1--3------|
A------------3------1-3--|
E------------------------|


Main Riff
e----------------------------------------------------|
B----------------------------------------------------|
G-------5--3-1---1--3-------------5--3-1---1--3------|
D--3-3---------3-------1--3--3-3---------3------1--3-|
A----------------------------------------------------|
E----------------------------------------------------|

Thats pretty much it. the song just repeats itself over and over. If you have any
comments or want me to tab something email me at Metall1ca14@gmail.com
Thanks! and Enjoy!
Tap to rate this tab
# A B C D E F G H I J K L M N O P Q R S T U V W X Y Z