Song name
# A B C D E F G H I J K L M N O P Q R S T U V W X Y Z

Muffs - Lucky Guy tab

intro

e|-----------------------------------|
b|-----------------------------------|
g|-----------------------------------|
d|-----------------------------------| x2
a|-9-988-866-644-422-244-4-99999999--|
e|-7-766-644-422-200-022-2-77777777--|

e|------------------------|
b|------------------------|
g|------------------------|
d|------------------------|
a|999999999999999999999999
e|777777777777777777777777

here's when she starts singing

Verse
(You and I are in danger)
e|--------------------------------|
b|--------------------------------|
g|--------------------------------|
d|--------------------------------|
a|99999999999999996666444499999999 x2
e|77777777777777774444222277777777

e|-------------------------------|
b|-------------------------------|
g|9--9--12--12-------------------|
d|9--9--12--12-------------------|
a|7--7--10--10--9999999999999999-|
e|--------------7777777777777777-|

e|-------------------------------|
b|-------------------------------|
g|9--9--12--12-------------------|
d|9--9--12--12--66666666---------|
a|7--7--10--10--4444444444444444-|
e|----------------------22222222-|

chorus

e|-----------------------------------|
b|-----------------------------------|
g|-----------------------------------|
d|-----------------------------------| x2
a|-9-988-866-644-422-244-4-99999999--|
e|-7-766-644-422-200-022-2-77777777--|

e|------------------|
b|------------------|
g|------------------|
d|------------------| x2
a|2222444499999999--
e|0000222277777777--


e|------------------------|
b|------------------------|
g|------------------------|
d|------------------------|
a|999999999999999999999999
e|777777777777777777777777

verse

e|--------------------------------|
b|--------------------------------|
g|--------------------------------|
d|--------------------------------|
a|99999999999999992222444499999999 x2
e|77777777777777770000222277777777

e|-------------------------------|
b|-------------------------------|
g|9--9--12--12-------------------|
d|9--9--12--12-------------------|
a|7--7--10--10--9999999999999999-|
e|--------------7777777777777777-|

e|-------------------------------|
b|-------------------------------|
g|9--9--12--12-------------------|
d|9--9--12--12--66666666---------|
a|7--7--10--10--4444444444444444-|
e|----------------------22222222-|

chorus

e|-----------------------------------|
b|-----------------------------------|
g|-----------------------------------|
d|-----------------------------------| x2
a|-9-988-866-644-422-244-4-99999999--|
e|-7-766-644-422-200-022-2-77777777--|

e|------------------|
b|------------------|
g|------------------|
d|------------------|
a|2222444499999999--
e|0000222277777777--


e|----------|
b|----------|
g|----------|
d|----------|
a|22224444--
e|00002222--

Solo

e|--------------------------------------------------------------------------|
b|7-7-7-7-7-7-7-7-7--7------------7--7-7-7-7--------------------------------|
g|9b9b9b9b9b9b9b9b9b-9b-9-7~--7-9-9b-9b9b9b9b-9-7---------------------------|
d|--------------------------9---------------------9--9-12-12-12-14b-14b14b--|
a|--------------------------------------------------------------------------|
e|--------------------------------------------------------------------------|

e|---------------------------------------------------------------------|
b|---------------------------------------------------------------------|
g|16-16-16-16-16-16-16-16--16-15--14-----------------------------------|
d|-----------------------------------16-16b-16b-16b16--14-16b16-14-13--|
a|---------------------------------------------------------------------|
e|---------------------------------------------------------------------|

e|----------------------------------------|
b|----------------------------------------|
g|9--9--9-9-12--10--12-12-----------------|
d|9--9--9-9-12--12--12-12-----------------|
a|7--7--7-7-10--10--10-109999999999999999-|
e|-----------------------7777777777777777-|

e|-----------------------------------------|
b|-----------------------------------------|
g|9--9--9-9-12--12--12-12------------------|
d|9--9--9-9-12--12--10-12-66666666---------|
a|7--7--7-7-10--10--10-10-4444444444444444-|
e|--------------------------------22222222-|

then chorus again

e|-----------------------------------|
b|-----------------------------------|
g|-----------------------------------|
d|-----------------------------------| x2
a|-9-988-866-644-422-244-4-99999999--|
e|-7-766-644-422-200-022-2-77777777--|

e|------------------|
b|------------------|
g|------------------|
d|------------------|  x2
a|2222444499999999--
e|0000222277777777--

e|----------|
b|----------|
g|----------|
d|----------|
a|22224444--x3
e|00002222--


e|-----
b|-----
g|-----
d|9----
a|9----
e|7----
Tap to rate this tab
 
# A B C D E F G H I J K L M N O P Q R S T U V W X Y Z