Song name
# A B C D E F G H I J K L M N O P Q R S T U V W X Y Z

Mumford And Sons - White Blank Page tab

-------------------------------------------------------------------------------
			     WHITE BLANK PAGE - Mumford And Sons
-------------------------------------------------------------------------------


| h  Hammer-on						Capo = 2nd Fret (Not Relative)
| *  Let Ring

Intro. & Verse
e|---0-0-0-0---0-0-0-0-|
B|---0-0-0-0---0-0-0-0-|
G|---0-0-0-0---0-0-0-0-|    x4
D|---------------------|
A|------------4--------|
E|-0-------------------|

|--0-0-0-0---0-0-0-0-|--5-5-5-5---5-5-5-5-|--5-5-5-5---5-5-5-5-|--5-5-5-5---0-0-0-0-|
|--3-3-3-3---3-3-3-3-|--0-0-0-0---0-0-0-0-|--3-3-3-3---3-3-3-3-|--0-0-0-0---0-0-0-0-|
|--0-0-0-0---0-0-0-0-|--0-0-0-0---0-0-0-0-|--0-0-0-0---0-0-0-0-|--0-0-0-0---0-0-0-0-|
|---------0h4--------|----------0---------|---------0h4--------|--------------------|
|-5------------------|--------------------|-5------------------|--------------------|
|--------------------|-5------------------|--------------------|-5--------4---------|

x4 (All)

- Can you lie next to her, and give her your heart, your heart, as well as your body?
- And can you lie next to her, and confess your love, your love as well as your folly? - 
And can you kneel before the king, and say I’m clean, I’m clean?

Bridge
|-7---------|-9---------|-5---------|-7---------|
|-5---------|-0---------|-3---------|-5---------|
|-0---------|-0---------|-0---------|-0---------|
|-6---------|-7---------|-4---------|-6---------|  x2
|-7---------|-9---------|-5---------|-7---------|
|-----------|-----------|-----------|-----------|
But tell me now, where was my fault, in loving you with my whole heart?


Bridge - x1 (Strummed Quickly, Same Lyrics)

Em*, C, G, C, G, G/F#

 Em*		                     C  G  C  G  G/F#
“A white blank page, and a swelling rage, rage”
 Em*			                     C	  G        C  G  G/F#
“You did not think, when you sent me to the brink, to the brink”
 Em*				            C   G	    C  G  G/F#
“You desired my attention, but denied my affections, my affections”


Bridge - x1 (Strummed Once Each, Same Lyrics)

Bridge - x1 (Soft Strumming On Top Strings, Same Lyrics)

Em*, C, G, C, G, G/F#  x2

Bridge - x2 (Strummed Once Each)	“aah-a-a-aah-aa-aah-a-aah”

Bridge - x2 (Strummed Quickly)        “aah-a-a-aah-aa-aah-a-aah”

Bridge - x2 (Strummed Quickly)
“Lead me to the truth, and I will follow you with my whole life”

|-0---------|-5---------|-7---------|
|-0---------|-3---------|-5---------|
|-0---------|-0---------|-0---------|
|-4---------|-4---------|-6---------|  x2 (Strummed Quickly, But
|-4---------|-5---------|-7---------|       Different to Rest)
|-0---------|-----------|-----------|

“aah-a-a-aah-aa-aah-a-aah” x4 (Just Vocals)
Tap to rate this tab
 
# A B C D E F G H I J K L M N O P Q R S T U V W X Y Z