Song name
# A B C D E F G H I J K L M N O P Q R S T U V W X Y Z

Mustasch - The Audience Is Listening tab

-------------------------------------------------------------------------------
	        The Audience is Listening (Intro) - Mustasch
-------------------------------------------------------------------------------
Tabbed by: Tobeo
Email: Tobeono1@gmail.com


This is my first tab ever, i think it sounds like it should but it is probably abit wrong.

This is the intro/ mainriff.

Tuning DADGBE (Drop D)
     E E E E E E E  E     W
E|----------------------|----------------------|
B|----------------------|----------------------|
G|----------------------|----------------------|
D|---7-7-5-5-8-8-5h-7---|----------------------|X8
A|----------------------|----------------------|
D|----------------------|----------------------|

Enters _AFTER_ 4th time
  E  E  E  E  E  E  E  E    E E E E E E E E
E|------------------------|-----------------|
H|------------------------|-----------------|
G|------------------------|-----------------|
D|12-12-10-10----13-10----|-8-8-8-8-8-8-----|
A|12-12-10-10----13-10----|-8-8-8-8-8-8-----|
D|12-12-10-10----13-10----|-8-8-8-8-8-8-----|

Tap to rate this tab
 
# A B C D E F G H I J K L M N O P Q R S T U V W X Y Z