Song name
# A B C D E F G H I J K L M N O P Q R S T U V W X Y Z

Mxpx - Chick Magnet tab

-------------------------------------------------------------------------------
			     chick magnet - MxPx
-------------------------------------------------------------------------------
Tabbed by: Seth G.
Email:trogdor_1992@hotmail.com

Tuning:standard
   Verse1
e|---------------------------------------------------------------------------|
B|---------------------------------------------------------------------------|
G|5~-------5~---5~-------5~5~---5~-------5~------5~--------------------------|
D|5~------5~5~--5~--------5~----5~------5~5~-----5~--------------------------|
A|3~------------3~--------------3~---------------3~--------------------------|
E|---------------------------------------------------------------------------|
                                                    pick slide
e|---------------------------------------------------------------------------|
B|---------------------------------------------------------------------------|
G|5--------------5-----------------5----------------5------------------------|
D|5-----3-2-3-2--5------3-2-3-2----5-----3-2-3-2----5-----3-2-3-2------------|
A|3-x4--3-2-3-2--3-x4---3-2-3-2----3-x4--3-2-3-2----3-x4--3-2-3-2------------|
E|------1-0-1-0---------1-0-1-0----------1-0-1-0----------1-0-1-0------------|
Chorus
e|---------------------------------------------------------------------------|
B|---------------------------------------------------------------------------|
G|---------------5-------------------------5----------------------5----------|
D|7------3-------5---5------7-------3------5---5------7-----3-----5---5------|
A|7-x4---3-x4----3---5------7-x4----3-x4---3---5------7-x4--3-x4--3---5------|
E|5------1-----------3------5-------1----------3------5-----1---------3------|

e|---------------------------------------------------------------------------|
B|---------------------------------------------------------------------------|
G|---------------12----------------------------------------------------------|
D|7------5-------xx----------------------------------------------------------|
A|7-x4---5-x4----10-x2--------------------------------------------------------|
E|5------3-------------------------------------------------------------------|
Verse2
e|---------------------------------------------------------------------------|
B|---------------------------------------------------------------------------|
G|5~-----5~---5~----5~5~---5~------5~---------5~-----------------------------|
D|5~----5~5~--5~-----5~----5~-------5~--------5~-----------------------------|
A|3~----------3~-----------3~-----3~----------3~-----------------------------|
E|---------------------------------------------------------------------------|
                                                  pick slide
e|---------------------------------------------------------------------------|
B|---------------------------------------------------------------------------|
G|5--------------5-----------------5------------------5----------------------|
D|5-----3-2-3-2--5------3-2-3-2----5------3-2-3-2-----5------3-2-3-2---------|
A|3-x4--3-2-3-2--3-x4---3-2-3-2----3-x4---3-2-3-2-----3-x4---3-2-3-2---------|
E|------1-0-1-0---------1-0-1-0-----------1-0-1-0------------1-0-1-0---------|
Chorus
e|---------------------------------------------------------------------------|
B|---------------------------------------------------------------------------|
G|--------------5--------------------5---------------------5-----------------|
D|7-----3-------5---5---7-----3------5---5----7-----3------5---5-------------|
A|7-x4--3-x4----3---5---7-x4--3-x4---3---5----7-x4--3-x4---3---5-------------|
E|5-----1-----------3---5-----1----------3----5-----1----------3-------------|

e|---------------------------------------------------------------------------|
B|---------------------------------------------------------------------------|
G|-------------12------------------------------------------------------------|
D|7-----5------xx------------------------------------------------------------|
A|7-x4--5-x4---10-x2---------------------------------------------------------|
E|5-----3--------------------------------------------------------------------|


| order:
| Verse1
| Pre chorus
| Chorus
| Verse2
| Pre chorus
| Chorus
| Interlude just throw in a C power chord
|Pre chorus till the end
|===============================================================================
Tap to rate this tab
 
# A B C D E F G H I J K L M N O P Q R S T U V W X Y Z