Song name
# A B C D E F G H I J K L M N O P Q R S T U V W X Y Z

Mxpx - Angels tab

e----------------------------------------------------|
b----------------------------------------------------|
g----------------------------------------------------|
d-----------3--2-------------------------------------|
a--------0-------3-----------------------------------|
e------1------------1--------------------------------|

*I used a Pocket POD on Bass Synth Like for that

e------------------------------------------------------------------|
b------------------------------------------------------------------|
g------------------------------------------------------------------|
d-------3-2------------------0-2-----------------------------------|
a----0------0 repeat 4x---1------3---------------------------------|
e--1---------------------------------------------------------------|
Tap to rate this tab
# A B C D E F G H I J K L M N O P Q R S T U V W X Y Z