Song name
# A B C D E F G H I J K L M N O P Q R S T U V W X Y Z

My Epic - Perfector tab

Standard tuning, except tune the A string up one half step to A# !!

[0:00-0:30]  
|--------------------------------------------------------------------------|
|--------------------------------------------------------------------------|
|----------2-------2----------2---------------------2---------2----------2-|
|------3-------3----------3---------------------3---------3----------3-----|
|--2h4---4---4---4----2h4---4----4/7--7/9---0h2---2-----2---2----0h2---2---|
|--------------------------------------------------------------------------|
|
|--------------------------------------------------------------------------------------------|
|--------------------------------------------------------------------------------------------|
|------------2---------2--------2--------2-----------2---------2--------2--------2--------2--|
|------3-----------3--------3--------3---------3-----------3--------3--------3--------3------|
|--2h4---4p2---2p0---0----0---0----0---0---2h4---4p2---2p0---0----0---0----0---0----0---0----|
|--------------------------------------------------------------------------------------------|
|
|x2

[0:30-2:01]
|--------------------------------------------------------------------------|
|--------------------------------------------------------------------------|
|--------2--------2--------2--------2--------2--------2--------2--------2--|
|----3--------3--------3--------3--------3--------3--------3--------3------|
|--4---4----4---4----4---4----4---4----2---2----2---2----2---2----2---2----|
|--------------------------------------------------------------------------|
|
|--------------------------------------------------------------------------|
|--------------------------------------------------------------------------|
|--------2--------2--------2--------2--------2--------2--------2--------2--|
|----3--------3--------3--------3--------3--------3--------3--------3------|
|--0---0----0---0----0---0----0---0----0---0----0---0----0---0----0---0----|
|--------------------------------------------------------------------------|
|
|x10

[2:01-2:31]
|----------------------------------------------------------------------------|
|--6----------------------------------6--------------------------------------|
|----7------------------------5h7h9-----7------------7/9---------------------|
|-----7h8-10-8-7-5~---5h7h8--------------7h8-10-8-7-------10--7h10p7--5------|
|-----------------------------------------------------------------------7----|
|----------------------------------------------------------------------------|
|
|----------------------------------------------------------------------------|
|--6----------------------------------6--------------------10----------------|
|----7-----------------7----------------7-----------7-7/10----9h10-9h10------|
|-----7h8-10-8-7--8/10---9-8-7-5---------7h8-10-8-7--------------------------|
|----------------------------------------------------------------------------|
|----------------------------------------------------------------------------|
|
|x2


[2:31-2:46]
|------------------------------------------------------------------------------------------------|
|--------------------------------------------101010101010-101010101010-101010101010-131313131313-|
|---777777-777777--101010101010-101010101010-----------------------------------------------------|
|------------------------------------------------------------------------------------------------|
|------------------------------------------------------------------------------------------------|
|------------------------------------------------------------------------------------------------|
|
|------------------------------------------------------------------------------------|
|-101010101010-101010101010-101010101010-131313131313--------------------------------|
|-101010101010-101010101010-101010101010---------------999999-999999-999999-999999b--|
|------------------------------------------------------------------------------------|
|------------------------------------------------------------------------------------|
|------------------------------------------------------------------------------------|
|
|x1


Softly at first. Gradually crescendo. 
[3:00-3:15]
|--------|
|---3----|
|---2----|
|---3----|
|---2----|
|--------|

[3:15-3:46]
|---------------------------------------------------|
|---------------------------------------------------|
|-2-22222-22222-22222-22222-22222-22222-2222xxxxxx--|
|-3-33333-33333-33333-33333-33333-33333-3333xxxxxx--|
|-4-44444-44444-44444-44442-22222-22222-2222xxxxxx--|
|---------------------------------------------------|
|
|---------------------------------------------------|
|---------------------------------------------------|
|-2-22222-22222-22222-22222-22222-22222-22222-22222-|
|-3-33333-33333-33333-33333-33333-33333-33333-33333-|
|-0-00000-00000-00000-00000-00000-00000-00000-00000-|
|---------------------------------------------------|
|
|---------------------------------------------------|
|---------------------------------------------------|
|-2-22222-22222-22222-22222-22222-22222-22222-22222-|
|-3-33333-33333-33333-33333-33333-33333-33333-33333-|
|-4-44444-44444-44444-44442-22222-22222-22222-22220-|
|---------------------------------------------------|
|
|---------------------------------------------------|
|---------------------------------------------------|
|-22222-22222-22222-22222-22222-22222-22222-22222---|
|-33333-33333-33333-33333-33333-33333-33333-33333---|
|-00000-00000-00000-00000-00000-00000-00000-00000---|
|---------------------------------------------------|
|
|x1


This next part is all tremolo.
[3:46-4:15]
|-----------------------------------------------|
|------------10-13-------------10---------10----|
|--10--10-12--------12---10-12--------10--------|
|---------------------------------12------------|
|-----------------------------------------------|
|-----------------------------------------------|
|
|-----------------------------------------------|
|------------10-13-------------10---------10-13-|
|--10--10-12--------12---10-12--------10--------|
|---------------------------------12------------|
|-----------------------------------------------|
|-----------------------------------------------|
|
|x1

[4:15-5:48]
|--------------------------------------------------------------------------|
|--------------------------------------------------------------------------|
|----------2-------2----------2---------------------2---------2----------2-|
|------3-------3----------3---------------------3---------3----------3-----|
|--2h4---4---4---4----2h4---4----4/7--7/9---0h2---2-----2---2----0h2---2---|
|--------------------------------------------------------------------------|
|
|--------------------------------------------------------------------------------------------|
|--------------------------------------------------------------------------------------------|
|------------2---------2--------2--------2-----------2---------2--------2--------2--------2--|
|------3-----------3--------3--------3---------3-----------3--------3--------3--------3------|
|--2h4---4p2---2p0---0----0---0----0---0---2h4---4p2---2p0---0----0---0----0---0----0---0----|
|--------------------------------------------------------------------------------------------|
|
|x5
Tap to rate this tab
 
# A B C D E F G H I J K L M N O P Q R S T U V W X Y Z