Song name
# A B C D E F G H I J K L M N O P Q R S T U V W X Y Z

My Epic - Zion tab

Standard Tuning

Guitar 1
This line fades in around
[0:27]
|------------------------------------|
|------------------------------------|
|--10----9----9-----10----9----9-----|
|-----12---12---12-----12---12---12--|
|------------------------------------|
|------------------------------------|
|
|x2

Guitar 1
[0:36]-[1:04]
|----------------------------------------------------|
|---------------------------------8----8----8--------|
|--10--9--9-10-12---10-12-10-9---9-9-10----9-9-10-9--|
|----12-12-------12-------------0---------0----------|
|----------------------------------------------------|
|----------------------------------------------------|
|
|-------------------------------------------------------|
|-------------------------------------------------------|
|--------10--------------------------9-10---------9--8--|
|--8p7-8----8-7-8p7----------------12------9/10--0--0---|
|-------------------10-8----8----12------12-------------|
|------------------------10----10-----------------------|
|
|x2


Guitar 2
[1:05]-[1:33]
|---------------------------18~---15-17----------|
|--18~--17-18-20-17~--17-18-------------15~-17~--|
|------------------------------------------------|
|------------------------------------------------|
|------------------------------------------------|
|------------------------------------------------|
|
|x2

Guitar 1
[1:08]-[2:04]
|----------------------------------------------------|
|---------------------------------8----8----8--------|
|--------------------------------9-9-10----9-9-10-9--|
|-------------------------------0---------0----------|
|----------------------------------------------------|
|----------------------------------------------------|
|
|-------------------------------------------------------|
|-------------------------------------------------------|
|--------10--------------------------9-10---------9--8--|
|--8p7-8----8-7-8p7----------------12------9/10--0--0---|
|-------------------10-8----8----12------12-------------|
|------------------------10----10-----------------------|
|
|----------------------------------------------------|
|---------------------------------8----8----8--------|
|--10--9--9-10-12---10-12-10-9---9-9-10----9-9-10-9--|
|----12-12-------12-------------0---------0----------|
|----------------------------------------------------|
|----------------------------------------------------|
|
|-------------------------------------------------------|
|-------------------------------------------------------|
|--------10--------------------------9-10---------9--8--|
|--8p7-8----8-7-8p7----------------12------9/10--0--0---|
|-------------------10-8----8----12------12-------------|
|------------------------10----10-----------------------|
Tap to rate this tab
# A B C D E F G H I J K L M N O P Q R S T U V W X Y Z