Song name
# A B C D E F G H I J K L M N O P Q R S T U V W X Y Z

My Ticket Home - Kick Rocks tab

-------------------------------------------------------------------------------
                             KICK ROCKS - MY TICKET HOME
-------------------------------------------------------------------------------
Tabbed by: mgallucci

Tuning:A# F A# D# G C

|Chorus/Intro|
|---------------------------------|   |---------------------------------|
|---------------------------------|   |---------------------------------|
|---------------------------------|   |---------------------------------|
|-5-5-5-6-5-8-5-5-5-6-5-8-3-3-5-5-|x3 |-5-5-5-6-5-8-5-5-5-0-0-0-0-0-0-0-|
|-5-5-5-6-5-8-5-5-5-6-5-8-3-3-5-5-|   |-5-5-5-6-5-8-5-5-5-4-4-4-4-4-4-4-|
|-5-5-5-6-5-8-5-5-5-6-5-8-3-3-5-5-|   |-5-5-5-6-5-8-5-5-5---------------|

 
|Verse A|
|------------------------------------------|
|------------------------------------------|
|------------------------------------------|
|-5-4--5-4--5-4--3-3-3-5-4--5-4--5-4-3-3-3-|x4
|-5-4--5-4--5-4--3-3-3-5-4--5-4--5-4-3-3-3-|
|-5-4--5-4--5-4--3-3-3-5-4--5-4--5-4-3-3-3-|


|Verse B|
|---------------------------------|
|-----6-6-6-----6-6-6-----6-------|
|-----6-6-6-----6-6-6-----6-------|
|-5-4-6-6-6-5-4-6-6-6-5-4-6-3-3-3-|x4
|-5-4-------5-4-------5-4---3-3-3-|
|-5-4-------5-4-------5-4---3-3-3-|
      + + +     + + +     + 


|Pre-chorus A| 
|----------------------|
|----------------------|
|----------------------|
|-4-4--5-4--5-4--3-3-3-|x2
|-5-4--5-4--5-4--3-3-3-|
|-5-4--5-4--5-4--3-3-3-|


|Chorus|
|---------------------------------|   |---------------------------------|
|---------------------------------|   |---------------------------------|
|---------------------------------|   |---------------------------------|
|-5-5-5-6-5-8-5-5-5-6-5-8-3-3-5-5-|x3 |-5-5-5-6-5-8-5-5-5-0-0-0-0-0-0-0-|
|-5-5-5-6-5-8-5-5-5-6-5-8-3-3-5-5-|   |-5-5-5-6-5-8-5-5-5-4-4-4-4-4-4-4-|
|-5-5-5-6-5-8-5-5-5-6-5-8-3-3-5-5-|   |-5-5-5-6-5-8-5-5-5---------------|

 
|Verse A|x4

 
|Verse B|x4


|Verse B Tag|
|-------------|
|-------------|
|-6b-6b-6b-6b-|
|-5b-5b-5b-5b-|
|-4b-4b-4b-4b-|
|-------------|


|Bridge Build| 1 Guitar                   
|---------------------|   |---------------------|
|---------------------|   |---------------------|
|---------------------|   |---------------------|
|-1-1-1--1-1-1--1-1-0-|x3 |-1-1-1--1-1-1--0-1-0-|
|-1-1-1--1-1-1--1-1-0-|   |-1-1-1--1-1-1--0-1-0-|
|-1-1-1--1-1-1--1-1-0-|   |-1-1-1--1-1-1--0-1-0-|
                                          ^^^^^ both guitars


|Bridge|
|------------------------------------------------------|
|------------------------------------------------------|
|------------------------------------------------------|
|-1-0-1-2--1-0-1-2--0-1-0--1-0-1-2--1-0-1-2--0-1-------|
|-1-0-1-2--1-0-1-2--0-1-0--1-0-1-2--1-0-1-2--0-1-------|
|-1-0-1----1-0-1----0-1-0--1-0-1----1-0-1----0-1-0-0-0-|
        +        +               +        +


|Pre Chorus B| 1 Guitar
|---------------------------------|   |---------------------------------|
|---------------------------------|   |---------------------------------|
|---------------------------------|   |---------------------------------|
|-5-5-5-6-5-8-5-5-5-6-5-8-3-3-5-5-|x3 |-5-5-5-6-5-8-5-5-5-0-0-0-0-0-0-0-|
|-5-5-5-6-5-8-5-5-5-6-5-8-3-3-5-5-|   |-5-5-5-6-5-8-5-5-5-4-4-4-4-4-4-4-|
|-5-5-5-6-5-8-5-5-5-6-5-8-3-3-5-5-|   |-5-5-5-6-5-8-5-5-5---------------|


|Chorus|
|---------------------------------|   |---------------------------------|
|---------------------------------|   |---------------------------------|
|---------------------------------|   |---------------------------------|
|-5-5-5-6-5-8-5-5-5-6-5-8-3-3-5-5-|x3 |-5-5-5-6-5-8-5-5-5-0-0-0-0-0-0-0-|
|-5-5-5-6-5-8-5-5-5-6-5-8-3-3-5-5-|   |-5-5-5-6-5-8-5-5-5-4-4-4-4-4-4-4-|
|-5-5-5-6-5-8-5-5-5-6-5-8-3-3-5-5-|   |-5-5-5-6-5-8-5-5-5---------------|


|Verse B|
|---------------------------------|
|-----6-6-6-----6-6-6-----6-------|
|-----6-6-6-----6-6-6-----6-------|
|-5-4-6-6-6-5-4-6-6-6-5-4-6-3-3-3-|x4
|-5-4-------5-4-------5-4---3-3-3-|
|-5-4-------5-4-------5-4---3-3-3-|
      + + +     + + +     + 


|Verse B Outro Tag|
|----------------|
|----------------|
|-6b-6b-6b-6b-6b-|
|-5b-5b-5b-5b-5b-|
|-4b-4b-4b-4b-4b-|
|----------------|


************************************

| /   slide up
| \   slide down
| h   hammer-on
| p   pull-off
| ~   vibrato
| +   harmonic
| x   Mute note
| b   Bend
| pb  Pre-bend
| br  Bend release
| pbr Pre-bend release
| brb Bend release bend

************************************
Tap to rate this tab
 
# A B C D E F G H I J K L M N O P Q R S T U V W X Y Z