Song name
# A B C D E F G H I J K L M N O P Q R S T U V W X Y Z

My Ticket Home - Spit Not Chewed tab

-------------------------------------------------------------------------------
                             SPIT NOT CHEWED - MY TICKET HOME
-------------------------------------------------------------------------------
Tabbed by: mgallucci


Tuning:A# F A# D# G C

|Intro|
|---------------------------------|   |-----------------|
|---------------------------------|   |-----------------|
|---------------------------------|   |-----------------|
|-1-0-0-1-1-1-2-2-----------------|x3 |-1-0-0-1-1-1-2-2-|
|-1-0-0-1-1-1-2-2-5-5---5-5---5-5-|   |-1-0-0-1-1-1-2-2-|
|-1-0-0-1-1-1-2-2-----x-----x-----|   |-1-0-0-1-1-1-2-2-|
                  + +   + +   + +
|Chorus|
|---------------------------------|   
|---------------------------------|   
|---------------------------------|   
|-1-0-0-1-1-1-2-2-----------------|x4 
|-1-0-0-1-1-1-2-2-5-5---5-5---5-5-|   
|-1-0-0-1-1-1-2-2-----x-----x-----|   
                  + +   + +   + +

|Chorus Tag|
|-----------------------------------------------------------------|
|-----------------------------------------------------------------|
|-----------------------------------------------------------------|
|-1-0-0-1-1-1-2-2-2-2-2-3-3-3-4-4-1-0-0-1-1-1-2-2-3-3-3-4-4-4-5-5-|x2
|-1-0-0-1-1-1-2-2-2-2-2-3-3-3-4-4-1-0-0-1-1-1-2-2-3-3-3-4-4-4-5-5-|
|-1-0-0-1-1-1-2-2-2-2-2-3-3-3-4-4-1-0-0-1-1-1-2-2-3-3-3-4-4-4-5-5-|

|Verse|
|--------------------------|
|--------------------------|
|--------------------------|
|-3-3-3-4-3-4--3-3-3-4-3-4-| x8
|-3-3-3-4-3-4--3-3-3-4-3-4-|
|-3-3-3-4---4--3-3-3-4---4-|


|Prechorus 1| 1 Guitar
|----------------------------------|
|----------------------------------|
|----------------------------------|
|-1-0-0-1-1-1-2-2--1-0-0-1-1-1-2-2-|
|-1-0-0-1-1-1-2-2--1-0-0-1-1-1-2-2-|
|-1-0-0-1-1-1-2-2--1-0-0-1-1-1-2-2-|
                                      

|Chorus|
|---------------------------------|   
|---------------------------------|   
|---------------------------------|   
|-1-0-0-1-1-1-2-2-----------------|x8 
|-1-0-0-1-1-1-2-2-5-5---5-5---5-5-|   
|-1-0-0-1-1-1-2-2-----x-----x-----|   
                  + +   + +   + +

|Verse 2| Lead scratching effect on guitar
|--------------------------|
|--------------------------|
|--------------------------|
|-3-3-3-4-3-4--3-3-3-4-3-4-| x8
|-3-3-3-4-3-4--3-3-3-4-3-4-|
|-3-3-3-4---4--3-3-3-4---4-|
 

|Prechorus 2| 1 Guitar          Both Guitars Slide
|-----------------------------------------|
|-----------------------------------------|
|-----------------------------------------|
|-1-0-0-1-1-1-2-2--1-0-0-1-1-1-2-2--12\\\-|
|-1-0-0-1-1-1-2-2--1-0-0-1-1-1-2-2--12\\\-|
|-1-0-0-1-1-1-2-2--1-0-0-1-1-1-2-2--12\\\-|


|Chorus|
|---------------------------------|   
|---------------------------------|   
|---------------------------------|   
|-1-0-0-1-1-1-2-2-----------------|x8 
|-1-0-0-1-1-1-2-2-5-5---5-5---5-5-|   
|-1-0-0-1-1-1-2-2-----x-----x-----|   
                  + +   + +   + +

|Bridge Build| Rhythm
|------------------------------------------------------------------|
|------------------------------------------------------------------|
|----------------------------------------------------6-6-6-6-6-6-6-|
|--5-5---5-5---5-5--5-6-5-0-2-1-0-1-0-0-5-5--5-6-5-0-5-5-5-5-5-5-5-|
|--5-5---5-5---5-5--5-6-5-0-2-1-0-1-0-0-5-5--5-6-5-0-4-4-4-4-4-4-4-|
|--5-5---5-5---5-5----6-5-0-2-1-0---0-0-5-5----6-5-0---------------|

|Bridge Build| Rhythm Cont.                   
|-------------------------------------------------|
|-----------------------------------------------4-|
|-----------------------------------------------4-|
|--5-5---5-5---5-5--5-6-5-0-2-1-0-1-0-0-5-5---x-4-|
|--5-5---5-5---5-5--5-6-5-0-2-1-0-1-0-0-5-5---x---|
|--5-5---5-5---5-5----6-5-0-2-1-0---0-0-5-5---x---|
                                                +

                                              ^^^Both guitars
 
|Bridge Build| Lead                                              
|------14b-------16b-------------------------15b-17b--19b-20b-22b-|
|-15t-------15t--------15t---16b-18b-19b-21b----------------------|
|-----------------------------------------------------------------|
|-----------------------------------------------------------------|
|-----------------------------------------------------------------|
|-----------------------------------------------------------------|


|Bridge|
|------------------------------------------------------|
|------------------------------------------------------|
|----------------------------------------6-6-6-6-6-6-6-|
|-5-5--5-6-5-0-2-1-0-1-0--0-5-5--5-6-5-0-5-5-5-5-5-5-5-|
|-5-5--5-6-5-0-2-1-0-1-0--0-5-5--5-6-5-0-4-4-4-4-4-4-4-|
|-5-5----6-5-0-2-1-0---0--0-5-5----6-5-0---------------|

|Bridge Cont.|                        [triplets----------------]
|--------------------------------------------------------------|
|--------------------------------------------------------------|
|----------------------------------------6-6-6-6-6-6-6-6-6-6-6-|
|-5-5--5-6-5-0-2-1-0-1-0--0-5-5--5-6-5-0-5-5-5-5-5-5-5-5-5-5-5-|
|-5-5--5-6-5-0-2-1-0-1-0--0-5-5--5-6-5-0-4-4-4-4-4-4-4-4-4-4-4-|
|-5-5----6-5-0-2-1-0---0--0-5-5----6-5-0-----------------------|


|Bridge Cont.|
|------------------------------------------------------|
|------------------------------------------------------|
|----------------------------------------6-6-6-6-6-6-6-|
|-5-5--5-6-5-0-2-1-0-1-0--0-5-5--5-6-5-0-5-5-5-5-5-5-5-|
|-5-5--5-6-5-0-2-1-0-1-0--0-5-5--5-6-5-0-4-4-4-4-4-4-4-|
|-5-5----6-5-0-2-1-0---0--0-5-5----6-5-0---------------|

|Bridge Cont.|
|-------------------------------|
|-------------------------------|
|-------------------------------|
|-5-5--5-6-5-0-2-1-0-1-0--0-5-5-|
|-5-5--5-6-5-0-2-1-0-1-0--0-5-5-|
|-5-5----6-5-0-2-1-0---0--0-5-5-|


|Chorus|
|---------------------------------|   
|---------------------------------|   
|---------------------------------|   
|-1-0-0-1-1-1-2-2-----------------|x4 
|-1-0-0-1-1-1-2-2-5-5---5-5---5-5-|   
|-1-0-0-1-1-1-2-2-----x-----x-----|   
                  + +   + +   + +

|Chorus Tag|
|-----------------------------------------------------------------|
|-----------------------------------------------------------------|
|-----------------------------------------------------------------|
|-1-0-0-1-1-1-2-2-2-2-2-3-3-3-4-4-1-0-0-1-1-1-2-2-3-3-3-4-4-4-5-5-|x2
|-1-0-0-1-1-1-2-2-2-2-2-3-3-3-4-4-1-0-0-1-1-1-2-2-3-3-3-4-4-4-5-5-|
|-1-0-0-1-1-1-2-2-2-2-2-3-3-3-4-4-1-0-0-1-1-1-2-2-3-3-3-4-4-4-5-5-|


|Outro|
|---------------------------------|   |---------------|
|---------------------------------|   |---------------| 
|---------------------------------|   |---------------|
|-1-0-1-2-1-2-1-0-5-6-5-6-5-3-3-0-|x3 |-1-0-0-1-1-1-2-|
|-1-0-1-2-1-2-1-0-5-6-5-6-5-3-3-0-|   |-1-0-0-1-1-1-2-|
|-1-0-1-2---2-1-0-5-6---6-5-3-3-0-|   |-1-0-0-1-1-1-2-|


************************************

| \   slide down
| t   tremelo
| +   harmonic
| x   Mute note
| b   Bend
************************************
Tap to rate this tab
# A B C D E F G H I J K L M N O P Q R S T U V W X Y Z