Song name
# A B C D E F G H I J K L M N O P Q R S T U V W X Y Z

Never Again - No Sympathy tab

NEVER AGAIN - NO SYMPATHY

e|-------------------------------------------------|
b|-------------------------------------------------|
G|-------6-6-6-------6-6-6-------6-6-6-------------|
D|-5-5-5-6-6-6-5-5-5-6-6-6-5-5-5-6-6-6-8-8-8-8-8-8-| x2
A|-5-5-5-4-4-4-5-5-5-4-4-4-5-5-5-4-4-4-8-8-8-8-8-8-|
D|-5-5-5-------5-5-5-------5-5-5-------8-8-8-8-8-8-|

just bass then

e|-------------------------------|
b|-------------------------------|
G|-------------------------------|
D|-5-5-5-8-8-8-2-2-2-6-6-6-5-5-5-| x4
A|-5-5-5-8-8-8-2-2-2-6-6-6-5-5-5-|
D|-5-5-5-8-8-8-2-2-2-6-6-6-5-5-5-|

e|------------------|
b|------------------|
G|------------------|
D|-5----------------|
A|-5----------------|
D|-5----------------|

e|---------------------------------------------------|
b|---------------------------------------------------|
G|-------6-6-6-------6-6-6-------6-6-6---------------|
D|-5-5-5-6-6-6-5-5-5-6-6-6-5-5-5-6-6-6-8-8-8-8-8-8-5-| 
A|-5-5-5-4-4-4-5-5-5-4-4-4-5-5-5-4-4-4-8-8-8-8-8-8-5-|
D|-5-5-5-------5-5-5-------5-5-5-------8-8-8-8-8-8-5-|
Tap to rate this tab
# A B C D E F G H I J K L M N O P Q R S T U V W X Y Z