Song name
# A B C D E F G H I J K L M N O P Q R S T U V W X Y Z

Never Again - Enough Is Enough tab

NEVER AGAIN - ENOUGH IS ENOUGH

e|---------------|
b|---------------|
G|---------------|
D|-5-8-8-5-5-5-8-|
A|-3-6-6-3-3-3-6-|
D|---------------|

e|-----------------|
b|-----------------|
G|-----------------|
D|-5-5-8-8---------| x4
A|-3-3-6-6-6-6-9-9-|
D|---------6-6-9-9-|

e|----------------------------------|
b|----------------------------------|
G|-5--------------------------------|
D|-5--------------------------------|
A|-3--------------------------------|
D|----------------------------------|

e|-------------------------|
b|-------------------------|
G|-------------------------|
D|-5-5-5-8-8-8-------------| x6
A|-3-3-3-6-6-6-4-4-4-1-1-1-|
D|-------------4-4-4-1-1-1-|

e|-------------------------------|
b|-------------------------------|
G|-------------------------------|
D|-5-5-5-88-8-8-8----------------| x2
A|-3-3-3-66-6-6-6-4-4-4-44-1-1-1-|
D|----------------4-4-4-44-1-1-1-|
   P M   PM P M   P M   PM P M

e|-------------------------|
b|-------------------------|
G|-------------------------|
D|-5-5-5-8-8-8-------------| X2
A|-3-3-3-6-6-6-4-4-4-7-7-7-|
D|-------------4-4-4-7-7-7-|

e|------------------------|
b|------------------------|
G|------------------------|
D|-------7----------------|
A|-7--7--7----------------|
D|-7--7--7----------------|
Tap to rate this tab
# A B C D E F G H I J K L M N O P Q R S T U V W X Y Z