Song name
# A B C D E F G H I J K L M N O P Q R S T U V W X Y Z

Nevermore - The Learning tab

#----------------------------------PLEASE NOTE---------------------------------#
#This file is the author's own work and represents their interpretation of the #
#song. You may only use this file for private study, scholarship, or research. #
#------------------------------------------------------------------------------#

THE LEARNING
As recorded by Nevermore
(From the 1996 Album POLITICS OF ECSTASY)

Transcribed by Russ Elton (webmaster@abysslord.com) & Jordan Baker (sansamppsa1@hotmail.com)
	

Words by Warrel Dane Music by Nevermore
Arranged by Russ Elton (webmaster@abysslord.com) & Jordan Baker (sansamppsa1@hotmail.com)

Gtr I (Eb Ab Db Gb Bb Eb) - 'Clean Guitar'
Gtr II (Eb Ab Db Gb Bb Eb) - 'Distortion Guitar'
Gtr III (Eb Ab Db Gb Bb Eb) - 'Distortion Guitar'
Gtr IV (Eb Ab Db Gb Bb Eb) - 'Lead Guitar'
Gtr V (Eb Ab Db Gb Bb Eb) - 'Lead Guitar'
Gtr VI (Eb Ab Db Gb Bb Eb) - 'Clean Guitar'

 Intro
  Q.=65
  Gm
 6/8
  Gtr I
  E E E E E E   E E E E E E   E E E E E E   E E E E E E
|-------------|-------------|-------------|-------------|
|-------------|-------------|-------------|-------------|
|-------0-----|-------0-----|-------0-----|-------0-----|
|-----0---0---|-----0---0---|-----0---0---|-----0---0---|
|---1-------1-|---1-------1-|---1-------1-|---1---------|
|-3-----------|-3-----------|-3-----------|-3---------1-|


  E E E E E E   E E E E E E   E E E E E E   E E E E E E
|-------------|-------------|-------------|----------------|
|-------------|-------------|-------------|----------------|
|-------0-----|-------0-----|-------0-----|-------0--------|
|-----0---0---|-----0---0---|-----0---0---|-----0---0------|
|---1-------1-|---1-------1-|---1-------1-|---1------------|
|-3-----------|-3-----------|-3-----------|-3---------3b5r=|


  G      Bb   D G    D Bb  G    BbD G  D Bb
  Gtr I
   E       E  E   E  E E     E  E E  E E   E
   |       |  |   |  | |     |  | |  | |   |
   o       o  o   o  o o     o  o o  o o   o

  Gtr IV
   E      +Q     +Q.        +Q.      Q    +E
|-12b13==(12)---(12)-----|-(12)-----12r==(12)-|
|------------------------|--------------------|
|------------------------|--------------------|
|------------------------|--------------------|
|------------------------|--------------------|
|------------------------|--------------------|
|
| Gtr II
|  E      +Q     +Q.        +Q.      Q    +E
|------------------------|--------------------|
|-13b15==(13)---(13)-----|-(13)-----13r==(13)-|
|------------------------|--------------------|
|------------------------|--------------------|
|------------------------|--------------------|
|------------------------|--------------------|
|
| Gtr III
|  E      +Q     +Q.        +Q.      Q    +E
|------------------------|--------------------|
|------------------------|--------------------|
|-14b15==(14)---(14)-----|-(14)-----14r==(14)-|
|------------------------|--------------------|
|------------------------|--------------------|
|------------------------|--------------------|


  G   BbD G D Bb  G    BbD G    D  F
   E  E E E E E     E  E E   E   E   E
   |  | | | | |     |  | |   |   |   |
   o  o o o o o     o  o o   o   o   o

   ~~~~~~~~~~~~~~~~~~~~~~~~~~~~~
   H.              +Q.      +E   E  +E
|-13------------|-(13)-----(13)-15-(15)b17r=|
|---------------|---------------------------|
|---------------|---------------------------|
|---------------|---------------------------|
|---------------|---------------------------|
|---------------|---------------------------|
|
|  ~~~~~~~~~~~~~~~~~~~~~~~~~~~~~
|  H.              +Q.      +E   E  +E
|---------------|---------------------------|
|-13------------|-(13)-----(13)-15-(15)b18r=|
|---------------|---------------------------|
|---------------|---------------------------|
|---------------|---------------------------|
|---------------|---------------------------|
|
|  ~~~~~~~~~~~~~~~~~~~~~~~~~~~~~
|  H.              +Q.      +E   E  +E
|---------------|---------------------------|
|---------------|---------------------------|
|-14------------|-(14)-----(14)-15-(15)b17r=|
|---------------|---------------------------|
|---------------|---------------------------|
|---------------|---------------------------|


  G    BbD G D Bb  G   BbD G   D Bb     G   BbD G D Bb  G  BbD  G    D    Bb
    E  E E E E E    E  E E  E  E E       E  E E E E E    E E  E   E    E  E
    |  | | | | |    |  | |  |  | |       |  | | | | |    | |  |   |    |  |
    o  o o o o o    o  o o  o  o o       o  o o o o o    o o  o   o    o  o

                                                                       >
    ~~~~~~~~~~~~~~~~~~~                  ~~~                  ~~~~~~~~~~~~
   +H.              Q.      Q.        a  H.              Q    E  +E   +Q
|-(15)-----------|-13--------------|------------------|----------------------||
|----------------|---------13------|------------------|----------------------||
|----------------|-----------------|-14h15------------|-15---12-(12)-(12)----||
|----------------|-----------------|------------------|----------------------||
|----------------|-----------------|------------------|----------------------||
|----------------|-----------------|------------------|----------------------||
|
|                                                                      >
|   ~~~~~~~~~~~~~~~~~~~                  ~~~                  ~~~~~~~~~~~~
|  +H.              Q.      Q.        a  H.              Q    E  +E   +Q
|----------------|-----------------|------------------|----------------------||
|-(15)-----------|-13--------------|------------------|----------------------||
|----------------|---------14------|------------------|----------------------||
|----------------|-----------------|-14h15------------|-15---12-(12)-(12)----||
|----------------|-----------------|------------------|----------------------||
|----------------|-----------------|------------------|----------------------||
|
|                                                                      >
|   ~~~~~~~~~~~~~~~~~~~                  ~~~                  ~~~~~~~~~~~~
|  +H.              Q.      Q.        a  H.              Q    E  +E   +Q
|----------------|-----------------|------------------|----------------------||
|----------------|-----------------|------------------|----------------------||
|-(15)-----------|-14--------------|------------------|----------------------||
|----------------|---------15------|------------------|----------------------||
|----------------|-----------------|-16h17------------|-17---13-(13)-(13)----||
|----------------|-----------------|------------------|----------------------||


 Verse
  Gm
  Gtrs II, III, IV
   <           >
   ~~~~~~~~~~~~~~~~~
   E    +Q     Q.         W                  W             W
|-----------------------|------------------|-------------|-------------|
|-----------------------|------------------|-------------|-------------|
|-12---(12)---12--------|------------------|-------------|-------------|
|-12---(12)---12--------|------------------|-------------|-------------|
|-13---(13)---13--------|------------------|-------------|-------------|
|-----------------------|------------------|-------------|-------------|
|
| Gtr I
|  E     E  E  E    E E   E E E E    +E  E   E E E E E E   E E E E E E
|-----------------------|------------------|-------------|-------------|
|-----------------------|------------------|-------------|-------------|
|--2b3---------2pb3-----|-------2pb3r(2)---|-0-----0-----|-------0-----|
|--------0----------0---|-----0----------0-|---0-----0---|-----0---0---|
|-----------1---------1-|---1--------------|-----1-----1-|---1-------1-|
|-----------------------|-3----------------|-------------|-3-----------|


    Gtr I
    E   E E E    E E   E E E E    +E  E   E E E E E E   E E E E E E
||-------------------|------------------|-------------|---------------||
||o------------------|------------------|-------------|--------------o||
||--2b3-----2pb3-----|-------2pb3r(2)---|-0-----0-----|-------0-------||
||------0--------0---|-----0----------0-|---0-----0---|-----0---0-----||
||o-------1--------1-|---1--------------|-----1-----1-|---1-------1--o||
||-------------------|-3----------------|-------------|-3-------------||


  D/F#                             Em
  E E E E E E   E E E E    +E  E   E E E E E E   E E E E E E
|-------------|------------------|-------------|-------------||
|-------------|------------------|-------------|-------------||
|-------2-----|-------2pb3r(2)---|-0-----0-----|-------0-----||
|-----0---0---|-----0----------0-|---2-----2---|-----2---2---||
|---0-------0-|---0--------------|-----2-----2-|---2-------0-||
|-2-----------|-2----------------|-------------|-0-----------||


 Chorus
  Cadd9         Em
   Q  E E E E   E E E E E E   E E E E E E
|-------------|-------------|-------------|
|-^3----3-5-0-|-------------|-------------|
|-^0----------|-------0-----|-------0-----|
|-^2--2-------|-----2---2---|-----2---2---|
|-^3----------|---2-------2-|---2-------0-|
|-------------|-0-----------|-0-----------|


  C             Em
   Q  E E E E   E E E E E E   E E E E E E
|-------------|-------------|-------------|
|-^1----1-3-0-|-------------|-------------|
|-^0----------|-------0-----|-------0-----|
|-^2--2-------|-----2-----2-|-----2---2---|
|-^3----------|---2-----2---|---2-------0-|
|-------------|-0-----------|-0-----------|


  Cadd9         Em                          C             Em      N.C.
   Q  E E E E   E E E E E E   E E E E E E    Q  E E E E   E E E E E E
|-------------|-------------|-------------|-------------|--------------|
|-^3----3-5-0-|-------------|-------------|-^1----1-3-0-|--------------|
|-^0----------|-------0-----|-------0-----|-^0----------|-------0------|
|-^2--2-------|-----2---2---|-----2---2---|-^2--2-------|-----2--------|
|-^3----------|---2-------2-|---2-------0-|-^3----------|---2----------|
|-------------|-0-----------|-0-----------|-------------|-0-------1-2--|


  Gm
  E E E E E E   E E E E E E   E E E E E E   E E E E E E
|-------------|-------------|-------------|-------------||
|-------------|-------------|-------------|-------------||
|-------0-----|-------0-----|-------0-----|-------0-----||
|-----0---0---|-----0---0---|-----0---0---|-----0---0---||
|---1-------1-|---1-------1-|---1-------1-|---1-------1-||
|-3-----------|-3-----------|-3-----------|-3-----------||


   Verse
    Gm
    E   E E E    E E   E E E E    +E  E   E E E E E E   E E E E E E   3x
||-------------------|------------------|-------------|---------------||
||o------------------|------------------|-------------|--------------o||
||--2b3-----2pb3-----|-------2pb3r(2)---|-0-----0-----|-------0-------||
||------0--------0---|-----0----------0-|---0-----0---|-----0---0-----||
||o-------1--------1-|---1--------------|-----1-----1-|---1-------1--o||
||-------------------|-3----------------|-------------|-3-------------||


    D/F#                             Em
    E E E E E E   E E E E    +E  E   E E E E E E   E E E E E E
||--------------|------------------|-------------|---------------||
||o-------------|------------------|-------------|--------------o||
||--------2-----|-------2pb3r(2)---|-0-----0-----|-------0-------||
||------0---0---|-----0----------0-|---2-----2---|-----2---2-----||
||o---0-------0-|---0--------------|-----2-----2-|---2-------0--o||
||--2-----------|-2----------------|-------------|-0-------------||


 Chorus
  Cadd9         Em
   Q  E E E E   E E E E E E   E E E E E E
|-------------|-------------|-------------|
|-^3----3-5-0-|-------------|-------------|
|-^0----------|-------0-----|-------0-----|
|-^2--2-------|-----2---2---|-----2---2---|
|-^3----------|---2-------2-|---2-------0-|
|-------------|-0-----------|-0-----------|


  C             Em
   Q  E E E E   E E E E E E   E E E E E E
|-------------|-------------|-------------|
|-^1----1-3-0-|-------------|-------------|
|-^0----------|-------0-----|-------0-----|
|-^2--2-------|-----2-----2-|-----2---2---|
|-^3----------|---2-----2---|---2-------0-|
|-------------|-0-----------|-0-----------|


  Cadd9         Em                          C
   Q  E E E E   E E E E E E   E E E E E E    Q  E E E E   E E E E E E
|-------------|-------------|-------------|-------------|--------------||
|-^3----3-5-0-|-------------|-------------|-^1----------|--------------||
|-^0----------|-------0-----|-------0-----|-^0--0-0-0-0-|-0-0-0-0-0-0--||
|-^2--2-------|-----2---2---|-----2---2---|-^2--2-2-2-2-|-2-2-2-2-2-2--||
|-^3----------|---2-------2-|---2-------0-|-^3--3-3-3-3-|-3-3-3-3-3-3--||
|-------------|-0-----------|-0-----------|-------------|--------------||


   Bridge
    H=H
    C#5                 C#sus2/G#       C#m/G#                  C#5/G#
    Gtrs II, III
    E E E E E E         E E E E E E     E E E E E E   E E E E E E
||---------------||-||---------------||-------------|-------------|
||o-------------o||-||o-------------o||-------------|-------------|
||---------------||-||--8-8-8-8-8-8--||-9-9-9-9-9-9-|-9-9-9-9-9---|
||--6-6-6-6-6-6--||-||--6-6-6-6-6-6--||-6-6-6-6-6-6-|-6-6-6-6-6-6-|
||o-4-4-4-4-4-4-o||-||o-4-4-4-4-4-4-o||-4-4-4-4-4-4-|-4-4-4-4-4-4-|
||---------------||-||--4-4-4-4-4-4--||-4-4-4-4-4-4-|-4-4-4-4-4-4-|


  Q.=80
  C5/G  B5/F#   E5    Bb5/C#5/C5/G  B5/F#   E5
  E E E E E E   E E E E E E   E E E E E E   E Q  Q.
|-------------|-------------|-------------|-----------||
|-------------|-------------|-------------|-----------||
|-------------|-------------|-------------|-----------||
|-5---5-4---4-|-2---2-3---6-|-5---5-4---4-|-2---------||
|-3---3-2---2-|-2---2-1---4-|-3---3-2---2-|-2---------||
|-3---3-2---2-|-0---0-1---4-|-3---3-2---2-|-0---------||


 Guitar Solo
  Q.=88
  Bb5                                                  C5 Bb5
  Gtr IV
                                       ~~~~~~~~~~~~~~~~~~~~~~~
   W                       S  S  S  S  E    +Q.
|-----------------------|------------------------------------|
|-----------------------|-------14h15-14---(14)--------------|
|-----------------------|-14h15------------------------------|
|-----------------------|------------------------------------|
|-----------------------|------------------------------------|
|-----------------------|------------------------------------|
|
| Gtrs II, III
|  E S S S S  E S S S S    E     S  S  S S   E  S S  a  S  S
|-----------------------|------------------------------------|
|-----------------------|------------------------------------|
|-10---------10---------|-------------------10------10s12s10-|
|--8----------8---------|--------------------8-------8s10s=8-|
|----0-0-0-0----0-0-0-0-|--0-----0--0--0-0------0-0----------|
|-----------------------|------------------------------------|


  A5
 ~~~~~~~~~~~~~~~~~~~~~~~~~~~~~~~
   +H.                      +Q       a  E    +E.    S  +E
|------------------------|------------------------------------|
|-(14)-------------------|-(14)-----14h15---(15)---14-(14)----|
|------------------------|------------------------------------|
|------------------------|------------------------------------|
|------------------------|------------------------------------|
|------------------------|------------------------------------|
|
|   E  S S S S E S S S S     E  S S     S S   E  S  S   S  S
|------------------------|------------------------------------|
|------------------------|------------------------------------|
|---9----------9---------|------------------------------------|
|---7----------7---------|---7----------------7---------------|
|------0-0-0-0---0-0-0-0-|---0--0-0-----0-0---0--0--0---0--0--|
|------------------------|------------------------------------|


  Bb5                                                  C5 Bb5
   ~~~
   H.                       S  E.      E    +Q          E
|------------------------|-----------------------------------|
|------------------------|-----------------------------------|
|-15---------------------|-14h15------14---(14)--------12----|
|------------------------|-----------------------------------|
|------------------------|-----------------------------------|
|------------------------|-----------------------------------|
|
|  E  S S S S  E S S S S    E     S S  S S   E  S S  a  S  S
|------------------------|-----------------------------------|
|------------------------|-----------------------------------|
|-10----------10---------|------------------10------10s12s10-|
|--8-----------8---------|-------------------8-------8s10s=8-|
|-----0-0-0-0----0-0-0-0-|--0-----0-0--0-0------0-0----------|
|------------------------|-----------------------------------|


  A5
       \1/                        \2.5_____________________|
   E  +Q          +Q.            +Q.               +E     +E    E
|-----------------------------|-------------------------------------||
|-----------------------------|-------------------------------------||
|-14-(14)--------(14)---------|-(14)--------------(14)---(14)-------||
|-----------------------------|-------------------------------------||
|-----------------------------|-------------------------------------||
|-----------------------------|-------------------------------------||
|
|  E   S   S S S   E  S S S S     S     S S S S S   S  S   S  S S S
|-----------------------------|-------------------------------------||
|-----------------------------|-------------------------------------||
|--9---------------9----------|-------------------------------------||
|--7---------------7----------|-------------------------------------||
|------0---0-0-0------0-0-0-0-|---0-----0-0-0-0-0---0--0---0--0-0-0-||
|-----------------------------|-------------------------------------||


 Verse
  $
  Bb5                                         C5 Bb5
  Gtrs II, III
   E S S S S  E S S S S   E S S S S  E S S  a  S  S
|-----------------------|---------------------------|
|-----------------------|---------------------------|
|-10---------10---------|-----------10-----10s12s10-|
|--8----------8---------|------------8------8s10s=8-|
|----0-0-0-0----0-0-0-0-|-0-0-0-0-0----0-0----------|
|-----------------------|---------------------------|


  A5
  E S S S S E S S S S   E S S S S E S S S S
|---------------------|---------------------|
|---------------------|---------------------|
|-9---------9---------|---------------------|
|-7---------7---------|-7---------7---------|
|---0-0-0-0---0-0-0-0-|-0-0-0-0-0-0-0-0-0-0-|
|---------------------|---------------------|


  Bb5                                         C5 Bb5
   E S S S S  E S S S S   E S S S S  E S S  a  S  S
|-----------------------|---------------------------|
|-----------------------|---------------------------|
|-10---------10---------|-----------10-----10s12s10-|
|--8----------8---------|------------8------8s10s=8-|
|----0-0-0-0----0-0-0-0-|-0-0-0-0-0----0-0----------|
|-----------------------|---------------------------|


  A5                    C
  E S S S S E S S S S   E S S S S E S S S S
|---------------------|---------------------||
|---------------------|---------------------||
|-9---------9---------|-8---------8---------||
|-7---------7---------|-7---------7---------||
|---0-0-0-0---0-0-0-0-|---0-0-0-0---0-0-0-0-||
|---------------------|---------------------||


   Verse
    F#/Bb
       PM----|   PM----|     PM----|   PM----|
     E S S S S E S S S S   E S S S S E S S S S
||-----------------------|---------------------|
||o----------------------|---------------------|
||--11-------------------|---------------------|
||---8-------------------|---------------------|
||o----------------------|---------------------|
||-----0-0-0-0-0-0-0-0-0-|-0-0-0-0-0-0-0-0-0-0-|


  Bb5
     PM----|   PM----|     PM----|   PM----|
   E S S S S E S S S S   E S S S S E S S S S
|----------------------|---------------------|
|----------------------|---------------------|
|-10-------------------|---------------------|
|--8-------------------|---------------------|
|----------------------|---------------------|
|----0-0-0-0-0-0-0-0-0-|-0-0-0-0-0-0-0-0-0-0-|


  F#/Bb
     PM----|    PM----|     PM----|
   E S S S S  E S S S S   E S S S S  Q   E
|-----------------------|------------------|
|-----------------------|------------------|
|-11---------11---------|-----------11--11-|
|--8----------8---------|------------8---8-|
|-----------------------|------------------|
|----0-0-0-0----0-0-0-0-|-0-0-0-0-0--------|


  1.
  Bb5
     PM----|   PM----|     PM----|   PM----|
   E S S S S E S S S S   E S S S S E S S S S
|----------------------|----------------------||
|----------------------|---------------------o||
|-10-------------------|----------------------||
|--8-------------------|----------------------||
|----------------------|---------------------o||
|----0-0-0-0-0-0-0-0-0-|-0-0-0-0-0-0-0-0-0-0--||


  2.
  Bb5                     EbE5/Bb
     PM----|    PM----|
   E S S S S  E S S S S   E  S  S  S  S  E  S  S  S  S
|-----------------------|---12-12-12-12-12-12-12-12-12-||
|-----------------------|---12-12-12-12-12-12-12-12-12-||
|-10---------10---------|-9--9--9--9--9--9--9--9--9--9-||
|--8----------8---------|-8--8--8--8--8--8--8--8--8--8-||
|-----------------------|------------------------------||
|----0-0-0-0----0-0-0-0-|------------------------------||


 Bridge
  E5        F5            E5        F5            N.C.
    PM----|   PM----|       PM----|   PM--------------|   PM------|   PM|
  E S S S S E S S S S     e S S S S E S S S S     S S S S S S S S S S S S
|---------------------||-----------------------||--------------------------|
|---------------------||o---------------------o||--------------------------|
|---------------------||-----------------------||--------------------------|
|---------------------||-----------------------||--------------------------|
|-2---------3---------||o-2---------3---------o||-------2-----------5------|
|-0-0-0-0-0-1-0-0-0-0-||--0-0-0-0-0-1-0-0-0-0--||-0-1-4---4-1-0-4-7---7-4--|


  E5        F5            E5        F5            N.C.
    PM----|   PM----|       PM----|   PM----|                        ~~~~~~~
  E S S S S E S S S S     e S S S S E S S S S     S S S S S S S S S  S  +E
|---------------------||-----------------------||---------------------------|
|---------------------||o---------------------o||---------------------------|
|---------------------||-----------------------||---------------------------|
|---------------------||-----------------------||---------------------------|
|-2---------3---------||o-2---------3---------o||-------2-----------[5]-(5)-|
|-0-0-0-0-0-1-0-0-0-0-||--0-0-0-0-0-1-0-0-0-0--||-0-1-4---4-1-0-4-7---------|


  E5        F5            E5        F5            N.C.
    PM----|   PM----|       PM----|   PM--------------|   PM------|   PM|
  E S S S S E S S S S     e S S S S E S S S S     S S S S S S S S S S S S
|---------------------||-----------------------||--------------------------|
|---------------------||o---------------------o||--------------------------|
|---------------------||-----------------------||--------------------------|
|---------------------||-----------------------||--------------------------|
|-2---------3---------||o-2---------3---------o||-------2-----------5------|
|-0-0-0-0-0-1-0-0-0-0-||--0-0-0-0-0-1-0-0-0-0--||-0-1-4---4-1-0-4-7---7-4--|


                                     To Coda
  E5        F5            E5        F5            N.C.           C5/G  B5/F#
                                                 3/8            6/8
    PM----|   PM----|       PM----|   PM----|
  E S S S S E S S S S     e S S S S E S S S S     S S S S S S    E E E E E E
|---------------------||-----------------------||-------------||--------------||
|---------------------||o---------------------o||-------------||--------------||
|---------------------||-----------------------||-------------||--------------||
|---------------------||-----------------------||-------------||-5---5-4---4--||
|-2---------3---------||o-2---------3---------o||-------2-----||-3---3-2---2--||
|-0-0-0-0-0-1-0-0-0-0-||--0-0-0-0-0-1-0-0-0-0--||-0-1-4---4-1-||-3---3-2---2--||


 Verse
  Bb5                                         C5 Bb5
   E S S S S  E S S S S   E S S S S  E S S  a  S  S
|-----------------------|---------------------------|
|-----------------------|---------------------------|
|-10---------10---------|-----------10-----10s12s10-|
|--8----------8---------|------------8------8s10s=8-|
|----0-0-0-0----0-0-0-0-|-0-0-0-0-0----0-0----------|
|-----------------------|---------------------------|


  A5
  E S S S S E S S S S   E S S S S E S S S S
|---------------------|---------------------|
|---------------------|---------------------|
|-9---------9---------|---------------------|
|-7---------7---------|-7---------7---------|
|---0-0-0-0---0-0-0-0-|-0-0-0-0-0-0-0-0-0-0-|
|---------------------|---------------------|


  Bb5                                         C5 Bb5
   E S S S S  E S S S S   E S S S S  E S S  a  S  S
|-----------------------|---------------------------|
|-----------------------|---------------------------|
|-10---------10---------|-----------10-----10s12s10-|
|--8----------8---------|------------8------8s10s=8-|
|----0-0-0-0----0-0-0-0-|-0-0-0-0-0----0-0----------|
|-----------------------|---------------------------|


                                    D.S. al Coda
  A5
  E S S S S E S S S S   S S S S S S S S S S S S
|---------------------|--------------------------||
|---------------------|--------------------------||
|-9---------9---------|--------------------------||
|-7---------7---------|--------------------------||
|---0-0-0-0---0-0-0-0-|-0-0-0-0-0-0-0-0-0-0-0-0--||
|---------------------|--------------------------||


                             Pre-Chorus
  &
  N.C.                        E5/B  Eb5/Bb
  PM--|   PM------|   PM|       PM|
  S S S S S S S S S S S S     E E E Q.
|-------------------------||-------------|
|-------------------------||o------------|
|-------------------------||-------------|
|-------------------------||--2-----1----|
|-------2-----------5-----||o-2-----1----|
|-0-1-4---4-1-0-4-7---7-4-||----3-0------|


  F5      G5F5G5  E5    Eb5/Bb F5      G5F5G5
  PM----|                      PM----|
  E S S E E E E   E E E Q.     E S S E E E E
|---------------|---0--------|------------------||
|---------------|-----0------|-----------------o||
|---------------|------------|------------------||
|---------------|-------1----|------------------||
|-3-3-3-3-5-3-5-|-2-----1----|-3-3-3-3-5-3-5---o||
|-1-1-1-1-3-1-3-|-0----------|-1-1-1-1-3-1-3----||


   Chorus
    Q.=94                                     1.              2.
    N.C.
    E E E E E E   E E E E E E   E E E E E E   E E E E E E     E E E E E E
||--------------|-------------|-------------|--------------||-------------|
||o-------------|-------------|-------------|-------------o||-------------|
||--------------|-------------|-------------|--------------||-------------|
||--7---7---7---|-6---6---6---|-5---5---5---|-3---3---3----||-3---3---1---|
||o---0---0---0-|---0---0---0-|---0---0---0-|---0---0---0-o||---0---0---0-|
||--------------|-------------|-------------|--------------||-------------|


  E E E E E E   E E E E E E   E E E E E E   E E E E E E
|-------------|-------------|-------------|-------------|
|-------------|-------------|-------------|-------------|
|-------------|-------------|-------------|-------------|
|-7---7---7---|-6---6---6---|-5---5---5---|-3---3---3---|
|---0---0---0-|---0---0---0-|---0---0---0-|---0---0---0-|
|-------------|-------------|-------------|-------------|


  Gtr V
  W             W              W                Q.       Q        +E
|-------------|-------------|----------------|----------19pb20r==(19)-||
|-------------|-------------|----------------|------------------------||
|-------------|-------------|----------------|------------------------||
|-------------|-------------|----------------|------------------------||
|-------------|-------------|----------------|------------------------||
|-------------|-------------|----------------|------------------------||
|
| Gtr III                                               Gtr IV
| E E E E E E   E E E E E E    E E  E E  E E    E  E  E  Q        +E
|-------------|-------------|----------------|------------------------||
|-------------|-------------|----------------|----------15pb17r==(15)-||
|-------------|-------------|----------------|------------------------||
|-7---7---7---|-9---9---9---|-10---10---10---|-12----12---------------||
|---0---0---0-|---0---0---0-|----0----0----0-|-----0------------------||
|-------------|-------------|----------------|------------------------||
|
| Gtr II
| E E E E E E   E E E E E E    E E  E E  E E    E  E  E  E     E   E
|-------------|-------------|----------------|------------------------||
|-------------|-------------|----------------|------------------------||
|-------------|-------------|----------------|------------------------||
|-7---7---7---|-6---6---6---|--5----5----5---|--3-----3--------1------||
|---0---0---0-|---0---0---0-|----0----0----0-|-----0-----0---------0--||
|-------------|-------------|----------------|------------------------||


 Bridge
  Q.=96
  N.C.
  Gtr V
   ~~~~~~~~~~~~~~~~~~~~~~~~~~~~~~~~~~~~~~~~~~~~~~~~~~~~~~~~~~
   H.                             +H.
|-19b20========================|=(19)-----------------------|
|------------------------------|----------------------------|
|------------------------------|----------------------------|
|------------------------------|----------------------------|
|------------------------------|----------------------------|
|------------------------------|----------------------------|
|
| Gtr IV
|  ~~~~~~~~~~~~~~~~~~~~~~~~~~~~~~~~~~~~~~~~~~~~~~~~~~~~~~~~~~
|  H.                             +H.
|------------------------------|----------------------------|
|-15b17========================|=(15)-----------------------|
|------------------------------|----------------------------|
|------------------------------|----------------------------|
|------------------------------|----------------------------|
|------------------------------|----------------------------|
|
| Gtrs II, III
|        PM------|   PM------|        PM------|   PM--|
|  S     S S S S S S S S S S S     S  S S S S S S S S S S S
|------------------------------|----------------------------|
|------------------------------|----------------------------|
|------------------------------|----------------------------|
|------------------------------|----------------------------|
|--7---------------7-----------|---7------------5-----------|
|--------5-5-5-5-5---4-4-4-4-4-|------3-3-3-3-3---3-3-3-0h3-|


                                 >
 ~~~~~~~~~~~~~~~~~~~~~~~~~~~~~~~~~~~~
   +H.                          +H.
|-(19)-----------------------|-(19)r--------------------------|
|----------------------------|--------------------------------|
|----------------------------|--------------------------------|
|----------------------------|--------------------------------|
|----------------------------|--------------------------------|
|----------------------------|--------------------------------|
|
|                                >
|~~~~~~~~~~~~~~~~~~~~~~~~~~~~~~~~~~~~
|  +H.                          +H.
|----------------------------|--------------------------------|
|-(15)-----------------------|-(15)r--------------------------|
|----------------------------|--------------------------------|
|----------------------------|--------------------------------|
|----------------------------|--------------------------------|
|----------------------------|--------------------------------|
|
|      PM------|   PM------|         PM------|   PM  PM  PM
|   S  S S S S S S S S S S S     S   S S S S S S S S S S S
|----------------------------|--------------------------------|
|----------------------------|--------------------------------|
|----------------------------|--------------------------------|
|----------------------------|--------------------------------|
|---5------------5-----------|---5-------------3---2---3------|
|------3-3-3-3-3---2-2-2-2-2-|-------1-1-1-1-1---1---1---1----|


    Gtrs II, III
      PM------|   PM------|     PM------|   PM--|
    S S S S S S S S S S S S   S S S S S S S S S S S S
||--------------------------|-------------------------|
||o-------------------------|-------------------------|
||--------------------------|-------------------------|
||--------------------------|-------------------------|
||o-7-----------7-----------|-7-----------5-----------|
||----5-5-5-5-5---4-4-4-4-4-|---3-3-3-3-3---3-3-3-0h3-|


    PM------|   PM------|     PM------|   PM  PM  PM
  S S S S S S S S S S S S   S S S S S S S S S S S S
|-------------------------|----------------------------||
|-------------------------|---------------------------o||
|-------------------------|----------------------------||
|-------------------------|----------------------------||
|-5-----------5-----------|-5-----------3---2---3-----o||
|---3-3-3-3-3---2-2-2-2-2-|---1-1-1-1-1---1---1---1----||


    PM------|   PM------|     PM------|   PM--|
  S S S S S S S S S S S S   S S S S S S S S S S S S
|-------------------------|-------------------------|
|-------------------------|-------------------------|
|-------------------------|-------------------------|
|-------------------------|-------------------------|
|-7-----------7-----------|-7-----------5-----------|
|---5-5-5-5-5---4-4-4-4-4-|---3-3-3-3-3---3-3-3-0h3-|


    PM------|   PM------|     PM------|
  S S S S S S S S S S S S   S S S S S S  E    +S  S S S
|-------------------------|-----------------------------||
|-------------------------|-----------------------------||
|-------------------------|-----------------------------||
|-------------------------|-----------------------------||
|-5-----------5-----------|-5-----------[2]b3r(2)p0-----||
|---3-3-3-3-3---2-2-2-2-2-|---1-1-1-1-1-------------3p0-||


 Guitar Solo
  Q.=92
  C#5                    C#sus2
  Gtr IV
            |-3-|        |-3--|
  E S S S S S S S E  E   S  S S E E E E E
|-9-0-0-0-0-8h9p8-0----|----------------8-|
|-------------------10-|-9h10p9-0---------|
|----------------------|----------9-8-9---|
|----------------------|------------------|
|----------------------|------------------|
|----------------------|------------------|
|
| Gtrs II, III
| E E   E   E     E  E   E      E E E E E
|----------------------|------------------|
|----------------------|------------------|
|----------------------|-8------8-8-8-8-8-|
|-6-6---6---6-----6--6-|-6------6-6-6-6-6-|
|-4-4---4---4-----4--4-|-4------4-4-4-4-4-|
|----------------------|------------------|


  C#m                   C#sus2
          |-3-| |-3-|       |-3-|         |-3-|
  E E E E S S S S S S   E E S S S S S S S S S S
|---------------------|--------------------------|
|-------8-7h8p7s5h7p5-|--------------------------|
|-9-8-9---------------|-8-9-8h9p8-6-8-9-8-6-8-6--|
|---------------------|--------------------------|
|---------------------|--------------------------|
|---------------------|--------------------------|
|
| E E E E E     E       E E E     E   E   E
|---------------------|--------------------------|
|---------------------|--------------------------|
|-9-9-9-9-9-----9-----|-8-8-8-----8---8---8------|
|-6-6-6-6-6-----6-----|-6-6-6-----6---6---6------|
|-4-4-4-4-4-----4-----|-4-4-4-----4---4---4------|
|---------------------|--------------------------|


  C5                Csus2               Cm                  Csus2
  ~~~~~~~~~~~        ~~~~~~~~~~~~                                     ~~~
  Q.     +Q    E     Q.      +Q     E    E  E  E  E  E  E    E  E  E  Q.
|-----------------|-------------------|-------------------|------------------|
|-----------------|-------------------|-------------------|------------------|
|-5------(5)---5/-|-17------(17)------|-------------------|------------------|
|-----------------|-------------------|-------------------|------------------|
|-----------------|----------------10-|-10s11-11-11s15-15-|-15s14-14-14------|
|-----------------|-------------------|-------------------|------------------|
|
| E  E E  E  E E     E  E E   E  E  E    E  E  E  E  E  E    E  E  E  E  E E
|-----------------|-------------------|-------------------|------------------|
|-----------------|-------------------|-------------------|------------------|
|-----------------|--7--7-7---7--7--7-|--8--8--8--8--8--8-|--7--7--7--7--7-7-|
|-5--5-5--5--5-5--|--5--5-5---5--5--5-|--5--5--5--5--5--5-|--5--5--5--5--5-5-|
|-3--3-3--3--3-3--|--3--3-3---3--3--3-|--3--3--3--3--3--3-|--3--3--3--3--3-3-|
|-----------------|-------------------|-------------------|------------------|


  C#5
  |------5------|  |------5------|  |------5------|
  S  S  S    S  S  S  S  S    S  S  S  S  S    S  S
|-0-16-21---16----------16---21-16------------16-17-|
|--------------19-16-19------------19-16-19---------|
|---------------------------------------------------|
|---------------------------------------------------|
|---------------------------------------------------|
|---------------------------------------------------|
|
| E       E        E       E        E       E
|---------------------------------------------------|
|---------------------------------------------------|
|---------------------------------------------------|
|-6-------6--------6-------6--------6-------6-------|
|-4-------4--------4-------4--------4-------4-------|
|---------------------------------------------------|


  C#sus2                                  C#m
                              ~~~~~~~~~~~~~~~~~~
   |----------9:6----------|                |-------5:3-------|  |---3---|
   S  S  S  S  S  S  S  S  S  Q.           +E    E    E  E    E  E  E    E  T  T  T  T
|-16----16-19-16------------------------|-------16---17-20---16-17------17-------------|
|----19----------19-16-19-16-19b21======|=(19)r--------------------19------17-19-17-16-|
|---------------------------------------|----------------------------------------------|
|---------------------------------------|----------------------------------------------|
|---------------------------------------|----------------------------------------------|
|---------------------------------------|----------------------------------------------|
|
|  E        E        E        E     E E     E      E       E     E    E     E
|---------------------------------------|----------------------------------------------|
|---------------------------------------|----------------------------------------------|
|--8--------8--------8--------8-----8-8-|---9------9-------9-----9----9-----9----------|
|--6--------6--------6--------6-----6-6-|---6------6-------6-----6----6-----6----------|
|--4--------4--------4--------4-----4-4-|---4------4-------4-----4----4-----4----------|
|---------------------------------------|----------------------------------------------|


  C#sus2                               C5
                                        ~~~~~~~~~~~~
   S  S  S  S  S  S  E      +E   +E     Q.      +Q     E
|------------------------------------|-------------------|
|----17-16----16---------------------|-------------------|
|-18-------18----17-18b20==(18)r(18)-|-17------(17)---16-|
|------------------------------------|-------------------|
|------------------------------------|-------------------|
|------------------------------------|-------------------|
|
|  E     E     E     E       E    E     E  E E   E  E  E
|------------------------------------|-------------------|
|------------------------------------|-------------------|
|--8-----8-----8-----8-------8----8--|-------------------|
|--6-----6-----6-----6-------6----6--|--5--5-5---5--5--5-|
|--4-----4-----4-----4-------4----4--|--3--3-3---3--3--3-|
|------------------------------------|-------------------|


  Csus2
   |------5:3------|  |------5:3------|
   E  E    E  E    E  E  E    E  E    E
|-19---------20---------15--------------|
|---------------------------------------|
|----16s==17------17s12------12s13---13-|
|---------------------------------------|
|---------------------------------------|
|---------------------------------------|
|
|  E    E       E     E    E       E
|---------------------------------------|
|---------------------------------------|
|--7----7-------7-----7----7-------7----|
|--5----5-------5-----5----5-------5----|
|--3----3-------3-----3----3-------3----|
|---------------------------------------|


  Cm
   |----------8:6-----------|  |----------8:6-----------|
   S  S  S    S  S  S    S  S  S  S  S    S  S  S    S  S
|----------------------------------------------15h==16h19-|
|---------------15h16p==15----------15h==16h18------------|
|-16p13h16---17------------17p16h17-----------------------|
|---------------------------------------------------------|
|---------------------------------------------------------|
|---------------------------------------------------------|
|
|  E       E          E        E       E          E
|---------------------------------------------------------|
|---------------------------------------------------------|
|--8-------8----------8--------8-------8----------8-------|
|--5-------5----------5--------5-------5----------5-------|
|--3-------3----------3--------3-------3----------3-------|
|---------------------------------------------------------|


  Csus2
   |----------8:6-----------|  |----------8:6-----------|
   S  S  S    S  S  S    S  S  S  S  S    S  S  S    S  S
|-16p15h16---19p15--------------------------16h19p==17p16-||
|------------------18p==16p15----16h17h==20---------------||
|-----------------------------17--------------------------||
|---------------------------------------------------------||
|---------------------------------------------------------||
|---------------------------------------------------------||
|
|  E       E          E        E       E          E
|---------------------------------------------------------||
|---------------------------------------------------------||
|--7-------7----------7--------7-------7----------7-------||
|--5-------5----------5--------5-------5----------5-------||
|--3-------3----------3--------3-------3----------3-------||
|---------------------------------------------------------||


 Bridge
  Q.=97
  N.C.
   ~~~~~~~~~~~~~~~~~~~~~~~~~~~~~~~
   H.                         +H.
|--------------------------|---------------------------|
|-17-----------------------|-(17)----------------------|
|--------------------------|---------------------------|
|--------------------------|---------------------------|
|--------------------------|---------------------------|
|--------------------------|---------------------------|
|
|  S S S S S S S S S S S S     S S S S S S S S S S S S
|--------------------------|---------------------------|
|--------------------------|---------------------------|
|--------------------------|---------------------------|
|--------------0h3h6-3p0---|---3p0-------0-------------|
|--------0h2h5-----------5-|-------5-2h5---5p2p0-5p2p0-|
|--0h1h4-------------------|---------------------------|


    >
    ~~~~
   +H.                        W
|---------------------------|-------------------------|
|-(17)----------------------|-------------------------|
|---------------------------|-------------------------|
|---------------------------|-------------------------|
|---------------------------|-------------------------|
|---------------------------|-------------------------|
|
|   S S S S S S S S S S S S   S S S S S S S S S S S S
|---------------------------|-------------------------|
|---------------------------|-------------------------|
|---------------------------|-------------------------|
|---------------0h3h6-3p0---|-3p0-------0-------------|
|---------0h2h5-----------5-|-----5-2h5---5p2p0-5p2p0-|
|---0h1h4-------------------|-------------------------|


  Gtrs II, III
  S S S S S S S S S S S S   S S S S S S S S S S S S
|-------------------------|-------------------------|
|-------------------------|-------------------------|
|-------------------------|-------------------------|
|-------------0h6h9-6p0---|-6p0-------0-------------|
|-------0h5h8-----------8-|-----8-5h8---8p5p0-8p5p0-|
|-0h4h7-------------------|-------------------------|


                                  PM|   PM--------|
  S S S S S S S S S S S S   S S S S S S S S S S S S
|-------------------------|-------------------------|
|-------------------------|-------------------------|
|-------------------------|-------------------------|
|-------------0h6h9-6p0---|-6p0-------0-------------|
|-------0h5h8-----------8-|-----8-5h8---8-5-0-8-5-0-|
|-0h4h7-------------------|-------------------------|


                                  PM--|   PM--------|
    S S S S S S S S S S S S   S S S S S S S S S S S S
||--------------------------|--------------------------||
||o-------------------------|-------------------------o||
||--------------------------|--------------------------||
||--------------0h3h6-3p0---|-3p0-------0--------------||
||o-------0h2h5-----------5-|-----5-2h5---5-2-0-5-2-0-o||
||--0h1h4-------------------|--------------------------||


                                PM--|   PM--------|
  S S S S S S S S S S S S   S S S S S S S S S S S S
|-------------------------|-------------------------|
|-------------------------|-------------------------|
|-------------------------|-------------------------|
|-------------0h6h9-6p0---|-6p0-------0-------------|
|-------0h5h8-----------8-|-----8-5h8---8-5-0-8-5-0-|
|-0h4h7-------------------|-------------------------|


  Gtr III
                            ~        ~
                               |-3-|
  S S S S S S S S S S S S   Q  S S S Q  E
|-------------------------|---------------||
|-------------------------|---------------||
|-------------------------|---------------||
|-------------0h6h9-6p0---|---------------||
|-------0h5h8-----------8-|-7--5-7-5------||
|-0h4h7-------------------|----------8--7-||
|
| Gtr II
|                           ~        ~
|                              |-3-|
| S S S S S S S S S S S S   Q  S S S Q  E
|-------------------------|---------------||
|-------------------------|---------------||
|-------------------------|---------------||
|-------------0h6h9-6p0---|-7--5h7p5------||
|-------0h5h8-----------8-|----------8--7-||
|-0h4h7-------------------|---------------||


 Guitar Solo
  Q.=91
  E5                F5
  Gtr IV
   S  S  S  S  S  S  S  S  S  S  S  S
|-------------------------------------|
|-------------------12----------------|
|----------11-12-14----14-12-11-12-14-|
|-14-13-14----------------------------|
|-------------------------------------|
|-------------------------------------|
|
| Gtrs II, III
|        PM------|         PM------|
|  E     S  S  S  S  E     S  S  S  S
|-------------------------------------|
|-------------------------------------|
|-------------------------------------|
|-------------------------------------|
|--2-----------------3----------------|
|--0-----0--0--0--0--1-----0--0--0--0-|


  E5                F5                  E5             F5
   S  S  S  S  S  S  S  S  S  S  S  S    Q.             +E.    +S   +S   S
|-------------------12----14----15----|-14b15==========(14)---(14)r(14)-12-|
|-12-------------12----12----12----12-|------------------------------------|
|----14-12-11-12----------------------|------------------------------------|
|-------------------------------------|------------------------------------|
|-------------------------------------|------------------------------------|
|-------------------------------------|------------------------------------|
|
|        PM------|         PM------|           PM----|      PM----------|
|  e     S  S  S  S  E     S  S  S  S    e     S S S S   E  S   S    S   S
|-------------------------------------|------------------------------------|
|-------------------------------------|------------------------------------|
|-------------------------------------|------------------------------------|
|-------------------------------------|------------------------------------|
|--2-----------------3----------------|--2---------------3-----------------|
|--0-----0--0--0--0--1-----0--0--0--0-|--0-----0-0-0-0---1--0---0----0---0-|


  N.C.
         ~~~~~~~~~~~~~~~~~~~~~~~~~~~~~
   S  S  Q            +Q         +S   S
|----12---------------------------------|
|-15----15b17========(15)-------(15)r---|
|---------------------------------------|
|---------------------------------------|
|---------------------------------------|
|---------------------------------------|
|
|  PM---|        PM---------|     PM--|
|  S  S  S     S S S   S  S S S   S   S
|---------------------------------------|
|---------------------------------------|
|---------------------------------------|
|---------------------------------------|
|--------------2--------------5---------|
|--0--1--4-------4-1---0--4-7-----7---4-|


  E5            F5              E5            F5
  S  S S S S  S S  S S S  S S    S S S S  S S  S  S  S S  S  S
|-----------------------------|---------------------------------|
|---------------------------8-|-------------8-10-12-10-8----10--|
|------8-9-8---------8-9-11---|-11-9-8-9-11--------------11-----|
|-9-10-------10-9-10----------|---------------------------------|
|-----------------------------|---------------------------------|
|-----------------------------|---------------------------------|
|
|      PM----|       PM-----|        PM-----|        PM-----|
| E    S S S  S E    S S  S S    e   S S  S S  E     S S  S  S
|-----------------------------|---------------------------------|
|-----------------------------|---------------------------------|
|-----------------------------|---------------------------------|
|-----------------------------|---------------------------------|
|-2-------------3-------------|--2-------------3----------------|
|-0----0-0-0--0-1----0-0--0-0-|--0---0-0--0-0--1-----0-0--0--0--|


  E5            F5              N.C.
                                             ~~~~~~~~~~~~~~~
  S  S S  S S S  S S S S  S S   S S S S S S  Q          +S  S
|-----------------------------|-------------------------------|
|-8---------8-8---------------|-------------------------------|
|---11-9-11-----11-9-8-9-11-9-|-8-7-9-8-7-8-------------------|
|-----------------------------|-------------10---------(10)---|
|-----------------------------|-------------------------------|
|-----------------------------|-------------------------------|
|
|      PM-----|      PM-----|                       ~~~~~~~~
| e    S  S S S  E   S S  S S   S S S S S S  S S S  S   +E
|-----------------------------|-------------------------------|
|-----------------------------|-------------------------------|
|-----------------------------|-------------------------------|
|-----------------------------|-------------------------------|
|-2--------------3------------|-------2------------[5]--(5)---|
|-0----0--0-0-0--1---0-0--0-0-|-0-1-4---4-1--0-4-7------------|


  E5             F5
  E  Q            +Q.
|---14b15========(14)r---------|
|------------------------------|
|------------------------------|
|------------------------------|
|------------------------------|
|------------------------------|
|
|    PM--------|       PM----|
| E  S     S S S   E   S S S S
|------------------------------|
|------------------------------|
|------------------------------|
|------------------------------|
|-2----------------3-----------|
|-0--0-----0-0-0---1---0-0-0-0-|


  E5             F5                 E5                F5
   ~~~~~~~~~~~~~~~~~~~~~~~~~
   Q.             +E   +E.      S    S  S  S  S  S  S  S  S  S  S  S  S
|-14b15==========(14)-(14)r-----0-|-19-15----15-------------------------|
|---------------------------------|-------17----17----------------------|
|---------------------------------|----------------16-------------------|
|---------------------------------|-------------------17----------------|
|---------------------------------|----------------------19-14----------|
|---------------------------------|----------------------------15-14-15-|
|
|        PM----|        PM------|          PM------|         PM----------
|  e     S S S S   E    S   S S S    e     S  S  S  S  E     S  S  S  S
|---------------------------------|-------------------------------------|
|---------------------------------|-------------------------------------|
|---------------------------------|-------------------------------------|
|---------------------------------|-------------------------------------|
|--2---------------3--------------|--2-----------------3----------------|
|--0-----0-0-0-0---1----0---0-0-0-|--0-----0--0--0--0--1-----0--0--0--0-|


  N.C.
   S  S  S  S  S  S  S  S  S  S  S  S
|-------------------------15-19-15----|
|----------------------17----------17-|
|-------------------16----------------|
|----------------17-------------------|
|----------14-19----------------------|
|-12-14-15----------------------------|
|
|-------|      PM---------|      PM|
|  S  S  S  S  S  S  S  S  S  S  S  S
|-------------------------------------|
|-------------------------------------|
|-------------------------------------|
|-------------------------------------|
|-----------2-----------------5-------|
|--0--1--4-----4--1--0--4--7-----7--4-|


  E5                F5                  E5                F5
   S  S  S  S  S  S  S  S  S  S  S  S    S  S  S  S  S  S  S  S  S  S  S  S
|-18-15----15----------------15-18-15-|-21-18----18----------------18-21-18-|
|-------17----17----------17----------|-------20----20----------20----------|
|----------------18-15-18-------------|----------------21-18-21-------------|
|-------------------------------------|-------------------------------------|
|-------------------------------------|-------------------------------------|
|-------------------------------------|-------------------------------------|
|
|        PM------|         PM------|           PM------|         PM------|
|  E     S  S  S  S  E     S  S  S  S    e     S  S  S  S  E     S  S  S  S
|-------------------------------------|-------------------------------------|
|-------------------------------------|-------------------------------------|
|-------------------------------------|-------------------------------------|
|-------------------------------------|-------------------------------------|
|--2-----------------3----------------|--2-----------------3----------------|
|--0-----0--0--0--0--1-----0--0--0--0-|--0-----0--0--0--0--1-----0--0--0--0-|


  E5                F5
   S  S  S  S  S  S  S  S  S  S  S  S
|-24-19----------------------------19--|
|-------20----------------------20-----|
|----------21----------------21--------|
|-------------21----------21-----------|
|----------------22-19-22--------------|
|--------------------------------------|
|
|        PM------|         PM------|
|  e     S  S  S  S  E     S  S  S  S
|--------------------------------------|
|--------------------------------------|
|--------------------------------------|
|--------------------------------------|
|--2-----------------3-----------------|
|--0-----0--0--0--0--1-----0--0--0--0--|


                                        Pre-Chorus
  N.C.                                   E5/B         Eb5/Bb
                                                 ~~~~~~~~~~~~~
   S  S  S  S  S  S  S  S  S  S  S  S     E     +Q     +Q.
|-23-20----------------------------20-||-22b24-(22)---(22)---|
|-------22----------------------22----||---------------------|
|----------23-20----------20-23-------||---------------------|
|----------------22-19-22-------------||---------------------|
|-------------------------------------||---------------------|
|-------------------------------------||---------------------|
|
|  PM---|      PM---------|      PM|             PM-|
|  S  S  S  S  S  S  S  S  S  S  S  S     E      E  E   Q.
|-------------------------------------||---------------------|
|-------------------------------------||---------------------|
|-------------------------------------||---------------------|
|-------------------------------------||--2-------------1----|
|-----------2-----------------5-------||--2-------------1----|
|--0--1--4-----4--1--0--4--7-----7--4-||---------3--0--------|


  F5         G5F5G5  E5       Eb5/Bb F5      G5F5G5
                       >
 ~~~~~~~~~~~~~~~~~~~~~~~~~
   +H.                +H.            W
|-(22)-------------|-(22)----------|-----------------|
|------------------|---------------|-----------------|
|------------------|---------------|-----------------|
|------------------|---------------|-----------------|
|------------------|---------------|-----------------|
|------------------|---------------|-----------------|
|
|   PM-----|                         PM----|
|   E  S S E E E E     E  E E Q.     E S S E E E E
|------------------|------0--------|-----------------|
|------------------|--------0------|-----------------|
|------------------|---------------|-----------------|
|------------------|----------1----|-----------------|
|---3--3-3-3-5-3-5-|---2------1----|-3-3-3-3-5-3-5---|
|---1--1-1-1-3-1-3-|---0-----------|-1-1-1-1-3-1-3---|


  E5/B  Eb5/Bb F5      G5F5G5  E5    Eb5/Bb F5      G5F5G5
  Gtrs II, III
    PM|        PM----|                      PM----|
  E E E Q.     E S S E E E E   E E E Q.     E S S E E E E
|------------|---------------|---0--------|---------------||
|------------|---------------|-----0------|---------------||
|------------|---------------|------------|---------------||
|-2-----1----|---------------|-------1----|---------------||
|-2-----1----|-3-3-3-3-5-3-5-|-2-----1----|-3-3-3-3-5-3-5-||
|---3-0------|-1-1-1-1-3-1-3-|-0----------|-1-1-1-1-3-1-3-||


   Chorus
    Q.=95                                     1.              2.
    N.C.
    E E E E E E   E E E E E E   E E E E E E   E E E E E E     E E E E E E
||--------------|-------------|-------------|--------------||-------------|
||o-------------|-------------|-------------|-------------o||-------------|
||--------------|-------------|-------------|--------------||-------------|
||--7---7---7---|-6---6---6---|-5---5---5---|-3---3---3----||-3---3---1---|
||o---0---0---0-|---0---0---0-|---0---0---0-|---0---0---0-o||---0---0---0-|
||--------------|-------------|-------------|--------------||-------------|


                                              1.              2.
    E E E E E E   E E E E E E   E E E E E E   E E E E E E     E E E E E E
||--------------|-------------|-------------|--------------||-------------|
||o-------------|-------------|-------------|-------------o||-------------|
||--------------|-------------|-------------|--------------||-------------|
||--7---7---7---|-6---6---6---|-5---5---5---|-3---3---3----||-3---3---1---|
||o---0---0---0-|---0---0---0-|---0---0---0-|---0---0---0-o||---0---0---0-|
||--------------|-------------|-------------|--------------||-------------|


  E E E E E E   E E E E E E   E E E E E E   E E E E E E
|-------------|-------------|-------------|-------------|
|-------------|-------------|-------------|-------------|
|-------------|-------------|-------------|-------------|
|-7---7---7---|-6---6---6---|-5---5---5---|-3---3---3---|
|---0---0---0-|---0---0---0-|---0---0---0-|---0---0---0-|
|-------------|-------------|-------------|-------------|


  Gtr III
                                                        ~~~
  E E E E E E   E E E E E E    E E  E E  E E    E E  E  Q.
|-------------|-------------|----------------|-----------------||
|-------------|-------------|----------------|-----------------||
|-------------|-------------|----------------|-----------------||
|-7---7---7---|-9---9---9---|-10---10---10---|-12---12-14------||
|---0---0---0-|---0---0---0-|----0----0----0-|----0------------||
|-------------|-------------|----------------|-----------------||
|
| Gtr II
| E E E E E E   E E E E E E    E E  E E  E E    E E  E  E  E E
|-------------|-------------|----------------|-----------------||
|-------------|-------------|----------------|-----------------||
|-------------|-------------|----------------|-----------------||
|-7---7---7---|-6---6---6---|--5----5----5---|--3----3-----1---||
|---0---0---0-|---0---0---0-|----0----0----0-|----0-----0----0-||
|-------------|-------------|----------------|-----------------||


 Bridge
  H.=H                                              Q.=78
  C5                         F#5
  Gtrs II, III
     PM------------------|      PM----------------|
  Q  E E E E   E E E E E E   Q  E E E E   E E E E E E
|------------|-------------|------------|-------------||
|------------|-------------|------------|-------------||
|------------|-------------|------------|-------------||
|-5--5-5-5-5-|-5-5-5-5-5-5-|------------|-------------||
|-3--3-3-3-3-|-3-3-3-3-3-3-|-4--4-4-4-4-|-4-4-4-4-4-4-||
|------------|-------------|-2--2-2-2-2-|-2-2-2-2-2-2-||


 Interlude
  Q=77
  Em                 Am7                Am6                  Em
 4/4
  Gtr I
   E E E E E E E E    E E E E E E E E    E E E E S S E E E    E E E E E E E E
|-^0-----0-3-----3-|-^3-----3-0-------|-^2-----2-2p0-------|-^0-----0-------0--|
|-^0---0-----0-----|-^1-1-------1---0-|-^1-1---------1---0-|-^0---0---0---0----|
|-^0-----------0---|-^2---2-------2---|-^2---2---------2---|-^0----------------|
|-^2-2-------------|------------------|--------------------|-^2-2-------2------|
|------------------|------------------|--------------------|-------------------|
|------------------|------------------|--------------------|-------------------|


                            Am7
  Gtr II
     <                               <
              ~~~~~~~~~~     ~~~~~~~~~~~~~~~~~~~~~~
   E E +Q    +Q    +E   E    Q.      E  +H
|-------------------------|-----------------------|
|-------------------------|-----------------------|
|----9-(9)---(9)---(9)\---|-11------12-(12)-------|
|-------------------------|-----------------------|
|-------------------------|-----------------------|
|-------------------------|-----------------------|
|
| Gtr I
|  E E  E  E  E  E  E   E    E  E E  E   E  E E E
|-^0-------0--3---------3-|-^3-------3---0--------|
|-^0----0--------0--------|-^1--1-----------1---0-|
|-^0----------------0-----|-^2----2-----------2---|
|-^2-2--------------------|-----------------------|
|-------------------------|-----------------------|
|-------------------------|-----------------------|


  Am6                              Em
   <                                >
 ~~~~~~~~~~~~~~~~~~                 ~~~
   Q    +Q     +Q.      S +S       +W
|--------------------------------|------------------------------|
|--------------------------------|------------------------------|
|--------------------------------|------------------------------|
|-10---(10)---(10)------9-(9)b10r|=(9)--------------------------|
|--------------------------------|------------------------------|
|--------------------------------|------------------------------|
|
|  E E   E  E   S S E E E           E  E E E E   E    E    E
|-^2--------2---2p0--------------|-^0------0-------------<12>---|
|-^1-1--------------1---0--------|-^0----0---0------<12>--------|
|-^2-----2------------2----------|-^0----------<12>-------------|
|--------------------------------|-^2--2------------------------|
|--------------------------------|------------------------------|
|--------------------------------|------------------------------|


                          H.=H
                          Am7
     <                             <
              ~~~~         ~~~~~~~~~~~~~~~
   E E +Q    +E   Q   E    Q.      E  +Q.      S  +S
|-----------------------|--------------------------------|
|-----------------------|---------------------12-(12)b13r|
|----9-(9)---(9)\-------|-11------12-(12)----------------|
|-----------------------|--------------------------------|
|-----------------------|--------------------------------|
|-----------------------|--------------------------------|
|
|  E E  E  E  E   E E E    E  E E  E   E  E E  E
|-^0-------0--3-------3-|-^3-------3---0-----------------|
|-^0----0---------0-----|-^1--1-----------1----0---------|
|-^0----------------0---|-^2----2-----------2------------|
|-^2-2------------------|--------------------------------|
|-----------------------|--------------------------------|
|-----------------------|--------------------------------|


                         Q=68
  Am6
                        2/4
    >
    ~~~~~~~~~~~~~~~~~~~~~~~~~~
   +W                     +H
|----------------------|---------||
|-(12)-----------------|-(12)----||
|----------------------|---------||
|----------------------|---------||
|----------------------|---------||
|----------------------|---------||
|
|   E  E E E S E. +Q      +H
|-^-2------2-2p0--(0)--|--(0)----||
|-^-1--1---------------|---------||
|-^-2----2-------------|---------||
|----------------------|---------||
|----------------------|---------||
|----------------------|---------||


 Bridge
  Q.=84
  N.C.
 6/8
  Gtr I
   Q  E  E E  E   Q  E E E E   Q  E E E E   Q  E E E E
|---------------|------------|------------|------------|
|-10----10---10-|-9----9---9-|-8----8---8-|-8----8---8-|
|---------------|------------|------------|------------|
|--7-----7----7-|-6----6---6-|-5----5---5-|-5----5---5-|
|-----0----0----|----0---0---|----0---0---|----0---0---|
|---------------|------------|------------|------------|


  Gtr VI
   Q  E  E E  E    Q  E  E E  E    Q  E  E E  E    Q  E  E E  E
|---------------|---------------|---------------|---------------|
|-10----10---10-|-12----12---12-|-13----13---13-|-13----13---13-|
|---------------|---------------|---------------|---------------|
|--7-----7----7-|--9-----9----9-|-10----10---10-|-10----10---10-|
|-----0----0----|-----0----0----|-----0----0----|-----0----0----|
|---------------|---------------|---------------|---------------|
|
| Gtr I
|  Q  E  E E  E    Q  E  E E  E    Q  E  E E  E    Q  E  E E  E
|---------------|---------------|---------------|---------------|
|-10----10---10-|--9-----9----9-|--8-----8----8-|--8-----8----8-|
|---------------|---------------|---------------|---------------|
|--7-----7----7-|--6-----6----6-|--5-----5----5-|--5-----5----5-|
|-----0----0----|-----0----0----|-----0----0----|-----0----0----|
|---------------|---------------|---------------|---------------|


  H=H
  A5
  Gtr VI
   Q   E  E E  E    Q   E  E E  E    Q   E  E E  E    Q   E  E E  E
|----------------|----------------|----------------|----------------|
|-10-----10---10-|-12-----12---12-|-13-----13---13-|-13-----13---13-|
|----------------|----------------|----------------|----------------|
|--7------7----7-|--9------9----9-|-10-----10---10-|-10-----10---10-|
|------0----0----|------0----0----|------0----0----|------0----0----|
|----------------|----------------|----------------|----------------|
|
| Gtr I
|  Q   E  E E  E    Q   E  E E  E    Q   E  E E  E    Q   E  E E  E
|----------------|----------------|----------------|----------------|
|-10-----10---10-|--9------9----9-|--8------8----8-|--8------8----8-|
|----------------|----------------|----------------|----------------|
|--7------7----7-|--6------6----6-|--5------5----5-|--5------5----5-|
|------0----0----|------0----0----|------0----0----|------0----0----|
|----------------|----------------|----------------|----------------|
|
| Gtrs II, III
|  PM------------------------------------------------------------|
|  E E E  E E  E    E E E  E E  E    E E E  E E  E    E E E  E E  E
|----------------|----------------|----------------|----------------|
|----------------|----------------|----------------|----------------|
|----------------|----------------|----------------|----------------|
|--2-2-2--2-2--2-|--2-2-2--2-2--2-|--2-2-2--2-2--2-|--2-2-2--2-2--2-|
|--0-0-0--0-0--0-|--0-0-0--0-0--0-|--0-0-0--0-0--0-|--0-0-0--0-0--0-|
|----------------|----------------|----------------|----------------|


   Q   E  E E  E    Q   E  E E  E    Q   E  E E  E    Q   E  E E  E
|----------------|----------------|----------------|----------------||
|-10-----10---10-|-12-----12---12-|-13-----13---13-|-13-----13---13-||
|----------------|----------------|----------------|----------------||
|--7------7----7-|--9------9----9-|-10-----10---10-|-10-----10---10-||
|------0----0----|------0----0----|------0----0----|------0----0----||
|----------------|----------------|----------------|----------------||
|
|  Q   E  E E  E    Q   E  E E  E    Q   E  E E  E    Q   E  E E  E
|----------------|----------------|----------------|----------------||
|-10-----10---10-|--9------9----9-|--8------8----8-|--8------8----8-||
|----------------|----------------|----------------|----------------||
|--7------7----7-|--6------6----6-|--5------5----5-|--5------5----5-||
|------0----0----|------0----0----|------0----0----|------0----0----||
|----------------|----------------|----------------|----------------||
|
|  PM-----------------|
|  E E E  E E  E    E E E  E E  E    E E E  E E  E    E E E  E E  E
|----------------|----------------|----------------|----------------||
|----------------|----------------|----------------|----------------||
|----------------|----------------|----------------|----------------||
|--2-2-2--2-2--2-|--2-2-2--2-2--2-|--2-2-2--2-2--2-|--2-2-2--2-2--2-||
|--0-0-0--0-0--0-|--0-0-0--0-0--0-|--0-0-0--0-0--0-|--0-0-0--0-0--0-||
|----------------|----------------|----------------|----------------||


 Bridge
  Q.=96
  A5               Am7              Fmaj7/A          G5/A
  Gtrs II, III
  Q   E  +E  E E   Q   E  +E  E E   Q   E  +E  E E    Q.    E   E  E
|-----0--(0)-----|-----0--(0)-----|-----0--(0)-----|-----------------|
|----------------|----------------|----------------|-----------------|
|----------------|----------------|----------------|--7---------5----|
|-7--(7)-(7)-7---|-5--(5)-(5)-5---|-3--(3)-(3)-3---|--5----(5)-(5)---|
|-0--(0)-(0)---0-|-0--(0)-(0)---0-|-0--(0)-(0)---0-|-(0)----0--(0)-0-|
|----------------|----------------|----------------|-----------------|


  A5               Am7              Fmaj7/A          G5/A
  Q   E  +E  E E   Q   E  +E  E E   Q   E  +E  E E    Q.    E   E  E
|-----0--(0)-----|-----0--(0)-----|-----0--(0)-----|-----------------||
|----------------|----------------|----------------|------------6----||
|----------------|----------------|----------------|--7--------------||
|-7--(7)-(7)-7---|-5--(5)-(5)-5---|-3--(3)-(3)-3---|--5----(5)-(5)---||
|-0--(0)-(0)---0-|-0--(0)-(0)---0-|-0--(0)-(0)---0-|-(0)----0--(0)-0-||
|----------------|----------------|----------------|-----------------||


 Guitar Solo
  A5                    Am7
  Gtr IV
   H.                    +Q.       +E   +E   E
|---------------------|------------------------|
|-15b17===============|=(15)------(15)r(15)-15-|
|---------------------|------------------------|
|---------------------|------------------------|
|---------------------|------------------------|
|---------------------|------------------------|
|
| Gtrs II, III
|  Q       E  +E  E E     Q    E   +E    E   E
|----------0--(0)-----|--------0---(0)---------|
|---------------------|------------------------|
|---------------------|------------------------|
|--7------(7)-(7)-7---|---5---(5)--(5)---5-----|
|--0------(0)-(0)---0-|---0---(0)--(0)-------0-|
|---------------------|------------------------|


  Fmaj7/A               G5/A
                              ~~~~~~
   E. S  E   E   E  E    E  E E +Q.
|---------------------|-------------------|
|-13----12h=13p=12----|-------------------|
|------------------12s|=14s=9-9-(9)-------|
|---------------------|-------------------|
|---------------------|-------------------|
|---------------------|-------------------|
|
|  Q     E  +E   E  E    Q.      E   E  E
|--------0--(0)-------|-------------------|
|---------------------|-------------------|
|---------------------|--7-----------5----|
|--3----(3)-(3)--3----|--5------(5)-(5)---|
|--0----(0)-(0)-----0-|-(0)------0--(0)-0-|
|---------------------|-------------------|


  A5                    Am7
   E  E  E   E   E  E    E  E  E   E   E  E
|---------------------|---------------------|
|---------------------|---------------------|
|-------17------------|------------------14-|
|---------------------|-------12--14--15----|
|-14s15-----15--14s12-|-14h15---------------|
|---------------------|---------------------|
|
|  Q     E  +E   E  E    Q     E  +E   E  E
|--------0--(0)-------|--------0--(0)-------|
|---------------------|---------------------|
|---------------------|---------------------|
|--7----(7)-(7)--7----|--5----(5)-(5)--5----|
|--0----(0)-(0)-----0-|--0----(0)-(0)-----0-|
|---------------------|---------------------|


  Fmaj7/A                  G5/A
                            ~~~
   E  E  E   E   E  S  S    H.
|-----------12--13-12h13p|=12---------------|
|-12-13-15---------------|------------------|
|------------------------|------------------|
|------------------------|------------------|
|------------------------|------------------|
|------------------------|------------------|
|
|  Q     E  +E   E  E       Q.    E   E  E
|--------0--(0)----------|------------------|
|------------------------|------------6-----|
|------------------------|--7---------------|
|--3----(3)-(3)--3-------|--5----(5)-(5)----|
|--0----(0)-(0)-----0----|-(0)----0--(0)-0--|
|------------------------|------------------|


  A5                    Am7
   E  E  E   E   E  E    E  E  E   E      +E   +S   S
|-17--------17--------|-17----------------------------|
|----15-13------13-12-|----12-10--12b13==(12)r(12)p10-|
|---------------------|-------------------------------|
|---------------------|-------------------------------|
|---------------------|-------------------------------|
|---------------------|-------------------------------|
|
|  Q     E  +E   E  E    Q     E  +E       E    E
|--------0--(0)-------|--------0--(0)-----------------|
|---------------------|-------------------------------|
|---------------------|-------------------------------|
|--7----(7)-(7)--7----|--5----(5)-(5)------5----------|
|--0----(0)-(0)-----0-|--0----(0)-(0)-----------0-----|
|---------------------|-------------------------------|


  Fmaj7/A                         G5/A
                                   ~~~
   E      +Q       +E    E S  S    H.
|-------------------------------|-----------------|
|-------------------------------|-----------------|
|-12b14==(12)-----(12)r-12-9h10-|--9--------------|
|-------------------------------|-----------------|
|-------------------------------|-----------------|
|-------------------------------|-----------------|
|
|  Q           E   +E    E E       Q.    E   E  E
|--------------0---(0)----------|-----------------|
|-------------------------------|-----------------|
|-------------------------------|--7---------5----|
|--3----------(3)--(3)---3------|--5----(5)-(5)---|
|--0----------(0)--(0)-----0----|-(0)----0--(0)-0-|
|-------------------------------|-----------------|


  A5
                      |---------7:6----------|
   S  S  S  S  S   S  S   S  S    S  S    S  S
|----------------------------------------------|
|----------------------------------------------|
|----------------------------------------------|
|----------------------------------------------|
|------------------------15-17---19-17---15-17-|
|-15-17-19-17-15--17-19------------------------|
|
|  Q           E     +E        E       E
|--------------0-----(0)-----------------------|
|----------------------------------------------|
|----------------------------------------------|
|--7----------(7)----(7)-------7---------------|
|--0----------(0)----(0)---------------0-------|
|----------------------------------------------|


  Am7
   |----------8:6-----------|  |---------7:6----------|
   S  S  S  S  S  S      S  S  S   S  S    S  S    S  S
|--------------------------------------------------------||
|--------------------------------------------------------||
|-----------------------------16--17-19---17-16---17-19--||
|----15-17-19-17-15-----17-19----------------------------||
|-19-----------------------------------------------------||
|--------------------------------------------------------||
|
|  Q                 E        +E        E       E
|--------------------0--------(0)------------------------||
|--------------------------------------------------------||
|--------------------------------------------------------||
|--5----------------(5)-------(5)-------5----------------||
|--0----------------(0)-------(0)---------------0--------||
|--------------------------------------------------------||


  Fmaj7/A
   |----------8:6-----------|  |---------7:6----------|
   S  S  S  S  S  S      S  S  S   S  S    S  S    S  S
|--------------------------17-19--20-19---17------------|
|-17-18-20-18-17-18-----20-------------------20---18-17-|
|-------------------------------------------------------|
|-------------------------------------------------------|
|-------------------------------------------------------|
|-------------------------------------------------------|
|
|  Q                 E        +E        E       E
|--------------------0--------(0)-----------------------|
|-------------------------------------------------------|
|-------------------------------------------------------|
|--3----------------(3)-------(3)-------3---------------|
|--0----------------(0)-------(0)---------------0-------|
|-------------------------------------------------------|


  G5/A
          |----------6:5-----------|
   S   S  E  E  E      E      E    E
|--------17-19-20-----19-----20---22-||
|-18--20-----------------------------||
|------------------------------------||
|------------------------------------||
|------------------------------------||
|------------------------------------||
|
|  Q.              E      E     E
|------------------------------------||
|-------------------------6----------||
|--7---------------------------------||
|--5--------------(5)----(5)---------||
|-(0)--------------0-----(0)----0----||
|------------------------------------||


 Out-Chorus
  A5                    Am7                  Fmaj7/A          G5/A
                          >
   H.                    +H.                 W                 W
|-22b24===============|=(22)r--------------|----------------|-----------------|
|---------------------|--------------------|----------------|-----------------|
|---------------------|--------------------|----------------|-----------------|
|---------------------|--------------------|----------------|-----------------|
|---------------------|--------------------|----------------|-----------------|
|---------------------|--------------------|----------------|-----------------|
|
|  Q       E  +E  E E     Q     E  +E  E E   Q   E  +E  E E    Q.    E   E  E
|----------0--(0)-----|---------0--(0)-----|-----0--(0)-----|-----------------|
|---------------------|--------------------|----------------|-----------------|
|---------------------|--------------------|----------------|--7---------5----|
|--7------(7)-(7)-7---|---5----(5)-(5)-5---|-3--(3)-(3)-3---|--5----(5)-(5)---|
|--0------(0)-(0)---0-|---0----(0)-(0)---0-|-0--(0)-(0)---0-|-(0)----0--(0)-0-|
|---------------------|--------------------|----------------|-----------------|


  A5               Am7              Fmaj7/A          G5/A
  Gtrs II, III
  Q   E  +E  E E   Q   E  +E  E E   Q   E  +E  E E    Q.    E   E  E
|-----0--(0)-----|-----0--(0)-----|-----0--(0)-----|-----------------|
|----------------|----------------|----------------|------------6----|
|----------------|----------------|----------------|--7--------------|
|-7--(7)-(7)-7---|-5--(5)-(5)-5---|-3--(3)-(3)-3---|--5----(5)-(5)---|
|-0--(0)-(0)---0-|-0--(0)-(0)---0-|-0--(0)-(0)---0-|-(0)----0--(0)-0-|
|----------------|----------------|----------------|-----------------|


  A5               Am7              Fmaj7/A          G5/A
  Q   E  +E  E E   Q   E  +E  E E   Q   E  +E  E E    Q.    E   E  E
|-----0--(0)-----|-----0--(0)-----|-----0--(0)-----|-----------------|
|----------------|----------------|----------------|-----------------|
|----------------|----------------|----------------|--7---------5----|
|-7--(7)-(7)-7---|-5--(5)-(5)-5---|-3--(3)-(3)-3---|--5----(5)-(5)---|
|-0--(0)-(0)---0-|-0--(0)-(0)---0-|-0--(0)-(0)---0-|-(0)----0--(0)-0-|
|----------------|----------------|----------------|-----------------|


  A5               Am7              Fmaj7/A          G5/A
  Q   E  +E  E E   Q   E  +E  E E   Q   E  +E  E E    Q.    E   E  E
|-----0--(0)-----|-----0--(0)-----|-----0--(0)-----|-----------------||
|----------------|----------------|----------------|------------6----||
|----------------|----------------|----------------|--7--------------||
|-7--(7)-(7)-7---|-5--(5)-(5)-5---|-3--(3)-(3)-3---|--5----(5)-(5)---||
|-0--(0)-(0)---0-|-0--(0)-(0)---0-|-0--(0)-(0)---0-|-(0)----0--(0)-0-||
|----------------|----------------|----------------|-----------------||


 Outro
  A5        G#5         F5        E5
    PM----|   PM----|     PM----|   PM|
  E S S S S E S S S S   E S S S S E S S S S
|---------------------|---------------------|
|---------------------|---------------------|
|---------------------|---------------------|
|---------------------|---------------------|
|-7---------6---------|-3---------2---------|
|-5-5-5-5-5-4-4-4-4-4-|-1-1-1-1-1-0-0-0-0h3-|


  A5        B5          C5         Bb5
    PM----|   PM----|      PM----|   PM----|
  E S S S S E S S S S    E S S S S E S S S S
|---------------------|-----------------------|
|---------------------|-----------------------|
|---------------------|-----------------------|
|---------------------|-----------------------|
|-7---------9---------|-10---------8----------|
|-5-5-5-5-5-7-7-7-7-7-|--8-8-8-8-8-6-6-6-6-6--|


  A5        G#5         F5        E5
    PM----|   PM----|     PM----|   PM|
  E S S S S E S S S S   E S S S S E S S S S
|---------------------|---------------------|
|---------------------|---------------------|
|---------------------|---------------------|
|---------------------|---------------------|
|-7---------6---------|-3---------2---------|
|-5-5-5-5-5-4-4-4-4-4-|-1-1-1-1-1-0-0-0-0h3-|


  D5        E5          F5         Eb5
    PM----|   PM----|      PM----|   PM----|
  E S S S S E S S S S    E S S S S E S S S S
|---------------------|-----------------------|
|---------------------|-----------------------|
|---------------------|-----------------------|
|-7---------9---------|-10---------8----------|
|-5-5-5-5-5-7-7-7-7-7-|--8-8-8-8-8-6-6-6-6-6--|
|---------------------|-----------------------|


    Q.=88
    A5     N.C.(Eb)  A5     N.C.(Eb)  A5     N.C.(Eb)  A5     N.C.(Eb)
           PM----|          PM----|          PM----|          PM----|
    E Q  E S S S S   E Q  E S S S S   E Q  E S S S S   E Q  E S S S S
||-----------------|----------------|----------------|------------------||
||o----------------|----------------|----------------|-----------------o||
||-----------------|----------------|----------------|------------------||
||-----------------|----------------|----------------|------------------||
||o-7------6-6-6-6-|-7------6-6-6-6-|-7------6-6-6-6-|-7------6-6-6-6--o||
||--5--------------|-5--------------|-5--------------|-5----------------||



Duration Legend
---------------
W - whole; H - half; Q - quarter; E - 8th; S - 16th; T - 32nd; X - 64th; a - acciaccatura
+ - note tied to previous; . - note dotted; .. - note double dotted
Uncapitalized letters represent notes that are staccato (1/2 duration)
Irregular groupings are notated above the duration line
Duration letters will always appear directly above the note/fret number it represents the
duration for.  Duration letters with no fret number below them represent rests.  Multi-
bar rests are notated in the form Wxn, where n is the number of bars to rest for.  Low
melody durations appear below the staff

Tablature Legend
----------------
 h   - hammer-on
 p   - pull-off
 b   - bend
 pb  - pre-bend
 r   - bend release (if no number after the r, then release immediately)
 /\  - slide into or out of (from/to "nowhere")
 s   - legato slide
 S   - shift slide
 - natural harmonic
[n]  - artificial harmonic
n(n) - tapped harmonic
 ~   - vibrato
 tr  - trill
 T   - tap
 TP  - trem. picking
 PM  - palm muting
\n/  - tremolo bar dip; n = amount to dip
 \n  - tremolo bar down
 n/  - tremolo bar up
/n\  - tremolo bar inverted dip
 =   - hold bend; also acts as connecting device for hammers/pulls
 <> - volume swell (louder/softer)
 x   - on rhythm slash represents muted slash
 o   - on rhythm slash represents single note slash

Misc Legend
-----------
 |  - bar
||  - double bar
||o - repeat start
o|| - repeat end
*|  - double bar (ending)
 :  - bar (freetime)
 $  - Segno
 &  - Coda
Tempo markers -  = BPM(8/16=s8/s16), where s8 = swing 8ths, s16 = swing 16ths

Tap to rate this tab
 
# A B C D E F G H I J K L M N O P Q R S T U V W X Y Z