Song name
# A B C D E F G H I J K L M N O P Q R S T U V W X Y Z

New Found Glory - Make It Right tab

Highlighted       Show chord diagrams
New Found Glory
Make It Right
Coming Home
2006 Geffen Records
Submitted by: paramore_fans@yahoo.com


Tuning: Standard EADGBe


Chords used:
A -    x02220
E -    022100
F#m -  244222
D -    xx0232
Bm -   x24432
A/C# - x476xx or x4222x


Intro: F#m-A-E-D (x2)


Guitar 2:
e|-2-2-2-2-2-0-------------------------------|
B|-------------2-2-2-2-2-0-----2-------------|
G|-------------------------2-2---2-----------|
D|---------------------------------4-4-4-4-4-| (x2)
A|-------------------------------------------|
E|-------------------------------------------|


Verse 1:
F#m   A     E                D
Focus on me there is more to see
    F#m    A            E          D
But use discretion this ride isn't free
     F#m        A          E               D
I'll prove them wrong I'll prove them more wrong
    F#m    A            E           D
The more I sit here the more that I think


Chorus:
Bm       A/C#      D
Every mistake I make from now on I'll turn around
F#m           E            D
I'll make it, I'll make it right
    Bm          A/C#    D
And every truth I fake I might hurt someone
F#m           E            D
I'll make it, I'll make it more right


Verse 2:
F#m      A           E               D
Pins and needles are up and down my spine
     F#m       A             E--D
I'll pull them out one by one
        F#m     A   E       D
I don't need it all Give it all away
    F#m         A              E                    D
The more that I breathe it The more it seeps through
       F#m     A       E                 D
It's a numbing feeling This is what I'll do


(Repeat Chorus)


Interlude:

Bass:
G|---------------------------------|
D|---------------------------------|
A|---------0-0-0-0-1-1-2-2-3-3-4-4-| (x2)
E|-2-2-2-2-------------------------|

then

Guitar 1: D-A-E-D (x2) F#m-A-E-D-F#m--E--

Guitar 2:
e|-2-2-2-2-2-0-------------------------------|
B|-------------2-2-2-2-2-0-----2-------------|
G|-------------------------2-2---2-----------|
D|---------------------------------4-4-4-4-4-| (x2)
A|-------------------------------------------|
E|-------------------------------------------|
then
e|-------0-------0-|-2-2-2-2-2-----------|
B|-----------------|-----------0-0-0-0-0-|
G|-1--2-----1--2---|---------------------|
D|-----------------|---------------------|
A|-----------------|---------------------|
E|-----------------|---------------------|
         x2


(Repeat Chorus)


Outro:
F#m  E            D
     I'll make it more right

Guitar 2:
e|-2-2-2-2-2-0-----------|
B|-------------2-2-2-2-2-|
G|-----------------------|
D|-----------------------|
A|-----------------------|
E|-----------------------|

Guitar 1: End on F#m
Tap to rate this tab
# A B C D E F G H I J K L M N O P Q R S T U V W X Y Z