Guitaretab - guitar tabs
Song name
# A B C D E F G H I J K L M N O P Q R S T U V W X Y Z

New Found Glory - The Promise tab

By-Francis
SHC-Lucena City,Philippines
Cp #- 09287150674 
E-add- f_sario@yahoo.com  
http://profiles.friendster.com/37158911

GtrI  ( e b g d A E )- dist

GtrII ( e b g d A E )- dist

Intro-

Piano
|-------------------|---------------------|------------------|---------------------|
|------6--5----5~~-|-----6-5-----5~------|------6-5---------|-----6-5----5~----8~-|
|-5-7--------7------|-5-7------7-----5~---|-5-7-------7------|-5h7------7----5~----|
|-------------------|---------------------|------------------|---------------------|
|-------------------|------------(0)------|--------------8~~-|---------------------|
|-------------------|---------------------|------------------|---------------------|

1.

GtrI 
|------------------------------------------------------------------------|
|------------------------------------------------------------------------|
|-5---5----5-----5-----5-----5-----5/------------------------------------|
|-5-5-5-5--5--5--5--5--5--5--5--5--5/------------------------------------|
|-3-5-3-5--3--5--3--5--3--5--3--5--3/------------------------------------|
|---3---3-----3-----3-----3-----3----------------------------------------|
Gtr II
|-----------------------------------------------------------------------|
|-----------------------------------------------------------------------|
|-5-5-5-5--5--5--5--5--5--5--5--5--5------------------------------------|
|-x-x-x-x--x--x--x--x--x--x--x--x--x------------------------------------|
|-3-3-3-3--3--3--3--3--3--3--3--3--3------------------------------------|
|-----------------------------------------------------------------------|

Verse-
GtrI& II
|-----------------------------------------------------------------------|
|-----------------------------------------------------------------------|
|-55555555555555----------------------------------5555555555555555------|
|-55555555555555-777777777777777--333333333333333-5555555555555555------|2x
|-33333333333333-777777777777777--333333333333333-3333333333333333------|
|----------------555555555555555--111111111111111-----------------------|
[ Tab from: http://www.guitaretab.com/n/new-found-glory/160775.html ]
Pre-
GtrI & II
|-----------------------------------------------------------------------|
|-----------------------------------------------------------------------|
|-5-xxxx-5-xxxx-5-------------------------------------------------------|
|-5-xxxx-5-xxxx-5-------------------------------------------------------|
|-3-xxxx-3-xxxx-3-------------------------------------------------------|
|-----------------------------------------------------------------------|

Chorus-
GtrI & II
|-----------------------------------------------------------------------|
|-----------------------------------------------------------------------|
|--555555555555-----------------------------55555555555-----------------|
|--555555555555-777777777777-3333333333333--555555555555--7-xxx-5-------|2x
|--333333333333-777777777777-3333333333333--333333333333--7-xxx-5-------|
|---------------555555555555-1111111111111----------------5-xxx-3-------|


Repeat Intro,Verse,Pre,Chorus.
Interlude-
GtrII 
|-----------------------------------------------------------------------|
|-----------------------------------------------5-----------------------|
|----5-4~--5-----7-5-4~--5--------5~--4-5~----5--7--5-------------------|
|--5---------5~------------5----5---------------------5~----------------|
|-----------------------------------------------------------------------|
|-----------------------------------------------------------------------|


|-----------------------------------------------------------------------|
|------5--8-6-5--------------5--8-6-5-----------------------------------|
|----5---------------------5---------------------5----------------------|
|--5------------5-7~-----5------------5--7~------5----------------------|
|------------------------------------------------3----------------------|
|-----------------------------------------------------------------------|
   * *                   * *
Repeat Chorus-

Last Chorus-

GtrI & II
|-----------------------------------------------------------------------|
|-----------------------------------------------------------------------|
|--5-5-5-5-5-5-5-----------------------------5-5-5-5-5-5----------------|
|--5-5-5-5-5-5-5-7-7-7-7-7-7-7-3-3-3-3-3-3-3-5-5-5-5-5-5--7-xxx-5-------|2x
|--3-3-3-3-3-3-3-7-7-7-7-7-7-7-3-3-3-3-3-3-3-3-3-3-3-3-3--7-xxx-5-------|
|----------------5-5-5-5-5-5-5-1-1-1-1-1-1-1--------------5-xxx-3-------|


GtrI & II
|-----------------------------------------------------------------------|
|-----------------------------------------------------------------------|
|---------------------------------------------------5~------------------|
|-7-7-7-7-7-7-7-7-7-7--3-3-3-3-3-3-3-3-3-3-3-3------5~------------------|end
|-7-7-7-7-7-7-7-7-7-7--3-3-3-3-3-3-3-3-3-3-3-3------3~------------------|
|-5-5-5-5-5-5-5-5-5-5--1-1-1-1-1-1-1-1-1-1-1-1--------------------------|
Related for The Promise tab